  0
SECTION
  2
HEADER
  9
$ACADVER
  1
AC1015
  9
$ACADMAINTVER
 70
     6
  9
$DWGCODEPAGE
  3
ANSI_1254
  9
$INSBASE
 10
0.0
 20
0.0
 30
0.0
  9
$EXTMIN
 10
0.0
 20
0.0
 30
0.0
  9
$EXTMAX
 10
279.4
 20
215.9
 30
0.0
  9
$LIMMIN
 10
0.0
 20
0.0
  9
$LIMMAX
 10
279.4
 20
215.9
  9
$ORTHOMODE
 70
     0
  9
$REGENMODE
 70
     1
  9
$FILLMODE
 70
     1
  9
$QTEXTMODE
 70
     0
  9
$MIRRTEXT
 70
     1
  9
$LTSCALE
 40
1.0
  9
$ATTMODE
 70
     1
  9
$TEXTSIZE
 40
3.5
  9
$TRACEWID
 40
1.0
  9
$TEXTSTYLE
  7
Standard
  9
$CLAYER
  8
0
  9
$CELTYPE
  6
ByLayer
  9
$CECOLOR
 62
   256
  9
$CELTSCALE
 40
1.0
  9
$DISPSILH
 70
     0
  9
$DIMSCALE
 40
1.0
  9
$DIMASZ
 40
3.5
  9
$DIMEXO
 40
1.0
  9
$DIMDLI
 40
3.75
  9
$DIMRND
 40
0.0
  9
$DIMDLE
 40
0.0
  9
$DIMEXE
 40
1.0
  9
$DIMTP
 40
0.0
  9
$DIMTM
 40
0.0
  9
$DIMTXT
 40
3.5
  9
$DIMCEN
 40
2.5
  9
$DIMTSZ
 40
0.0
  9
$DIMTOL
 70
     0
  9
$DIMLIM
 70
     0
  9
$DIMTIH
 70
     1
  9
$DIMTOH
 70
     1
  9
$DIMSE1
 70
     0
  9
$DIMSE2
 70
     0
  9
$DIMTAD
 70
     1
  9
$DIMZIN
 70
     0
  9
$DIMBLK
  1

  9
$DIMASO
 70
     1
  9
$DIMSHO
 70
     1
  9
$DIMPOST
  1

  9
$DIMAPOST
  1

  9
$DIMALT
 70
     0
  9
$DIMALTD
 70
     3
  9
$DIMALTF
 40
0.0393700787
  9
$DIMLFAC
 40
1.0
  9
$DIMTOFL
 70
     1
  9
$DIMTVP
 40
0.0
  9
$DIMTIX
 70
     0
  9
$DIMSOXD
 70
     0
  9
$DIMSAH
 70
     0
  9
$DIMBLK1
  1

  9
$DIMBLK2
  1

  9
$DIMSTYLE
  2
ISO-25
  9
$DIMCLRD
 70
     0
  9
$DIMCLRE
 70
     0
  9
$DIMCLRT
 70
     0
  9
$DIMTFAC
 40
1.0
  9
$DIMGAP
 40
1.524
  9
$DIMJUST
 70
     0
  9
$DIMSD1
 70
     0
  9
$DIMSD2
 70
     0
  9
$DIMTOLJ
 70
     0
  9
$DIMTZIN
 70
     0
  9
$DIMALTZ
 70
     0
  9
$DIMALTTZ
 70
     0
  9
$DIMUPT
 70
     0
  9
$DIMDEC
 70
     2
  9
$DIMTDEC
 70
     2
  9
$DIMALTU
 70
     2
  9
$DIMALTTD
 70
     3
  9
$DIMTXSTY
  7
Standard
  9
$DIMAUNIT
 70
     0
  9
$DIMADEC
 70
     2
  9
$DIMALTRND
 40
0.0
  9
$DIMAZIN
 70
     0
  9
$DIMDSEP
 70
    44
  9
$DIMATFIT
 70
     3
  9
$DIMFRAC
 70
     0
  9
$DIMLDRBLK
  1

  9
$DIMLUNIT
 70
     2
  9
$DIMLWD
 70
    -2
  9
$DIMLWE
 70
    -2
  9
$DIMTMOVE
 70
     0
  9
$LUNITS
 70
     2
  9
$LUPREC
 70
     2
  9
$SKETCHINC
 40
1.0
  9
$FILLETRAD
 40
10.0
  9
$AUNITS
 70
     0
  9
$AUPREC
 70
     2
  9
$MENU
  1
.
  9
$ELEVATION
 40
0.0
  9
$PELEVATION
 40
0.0
  9
$THICKNESS
 40
0.0
  9
$LIMCHECK
 70
     0
  9
$CHAMFERA
 40
0.0
  9
$CHAMFERB
 40
0.0
  9
$CHAMFERC
 40
0.0
  9
$CHAMFERD
 40
0.0
  9
$SKPOLY
 70
     0
  9
$TDCREATE
 40
2459741.606144063
  9
$TDUCREATE
 40
2459741.481144063
  9
$TDUPDATE
 40
2459741.606144236
  9
$TDUUPDATE
 40
2459741.481144236
  9
$TDINDWG
 40
0.0000000116
  9
$TDUSRTIMER
 40
0.0000000116
  9
$USRTIMER
 70
     1
  9
$ANGBASE
 50
0.0
  9
$ANGDIR
 70
     0
  9
$PDMODE
 70
     0
  9
$PDSIZE
 40
-1.0
  9
$PLINEWID
 40
0.0
  9
$SPLFRAME
 70
     0
  9
$SPLINETYPE
 70
     6
  9
$SPLINESEGS
 70
     8
  9
$HANDSEED
  5
102
  9
$SURFTAB1
 70
     6
  9
$SURFTAB2
 70
     6
  9
$SURFTYPE
 70
     6
  9
$SURFU
 70
     6
  9
$SURFV
 70
     6
  9
$UCSBASE
  2

  9
$UCSNAME
  2

  9
$UCSORG
 10
0.0
 20
0.0
 30
0.0
  9
$UCSXDIR
 10
1.0
 20
0.0
 30
0.0
  9
$UCSYDIR
 10
0.0
 20
1.0
 30
0.0
  9
$UCSORTHOREF
  2

  9
$UCSORTHOVIEW
 70
     0
  9
$UCSORGTOP
 10
0.0
 20
0.0
 30
0.0
  9
$UCSORGBOTTOM
 10
0.0
 20
0.0
 30
0.0
  9
$UCSORGLEFT
 10
0.0
 20
0.0
 30
0.0
  9
$UCSORGRIGHT
 10
0.0
 20
0.0
 30
0.0
  9
$UCSORGFRONT
 10
0.0
 20
0.0
 30
0.0
  9
$UCSORGBACK
 10
0.0
 20
0.0
 30
0.0
  9
$PUCSBASE
  2

  9
$PUCSNAME
  2

  9
$PUCSORG
 10
0.0
 20
0.0
 30
0.0
  9
$PUCSXDIR
 10
1.0
 20
0.0
 30
0.0
  9
$PUCSYDIR
 10
0.0
 20
1.0
 30
0.0
  9
$PUCSORTHOREF
  2

  9
$PUCSORTHOVIEW
 70
     0
  9
$PUCSORGTOP
 10
0.0
 20
0.0
 30
0.0
  9
$PUCSORGBOTTOM
 10
0.0
 20
0.0
 30
0.0
  9
$PUCSORGLEFT
 10
0.0
 20
0.0
 30
0.0
  9
$PUCSORGRIGHT
 10
0.0
 20
0.0
 30
0.0
  9
$PUCSORGFRONT
 10
0.0
 20
0.0
 30
0.0
  9
$PUCSORGBACK
 10
0.0
 20
0.0
 30
0.0
  9
$USERI1
 70
     0
  9
$USERI2
 70
     0
  9
$USERI3
 70
     0
  9
$USERI4
 70
     0
  9
$USERI5
 70
     0
  9
$USERR1
 40
0.0
  9
$USERR2
 40
0.0
  9
$USERR3
 40
0.0
  9
$USERR4
 40
0.0
  9
$USERR5
 40
0.0
  9
$WORLDVIEW
 70
     1
  9
$SHADEDGE
 70
     3
  9
$SHADEDIF
 70
    70
  9
$TILEMODE
 70
     1
  9
$MAXACTVP
 70
    64
  9
$PINSBASE
 10
0.0
 20
0.0
 30
0.0
  9
$PLIMCHECK
 70
     0
  9
$PEXTMIN
 10
1.0000000000E+20
 20
1.0000000000E+20
 30
1.0000000000E+20
  9
$PEXTMAX
 10
-1.0000000000E+20
 20
-1.0000000000E+20
 30
-1.0000000000E+20
  9
$PLIMMIN
 10
0.0
 20
0.0
  9
$PLIMMAX
 10
420.0
 20
297.0
  9
$UNITMODE
 70
     0
  9
$VISRETAIN
 70
     1
  9
$PLINEGEN
 70
     0
  9
$PSLTSCALE
 70
     1
  9
$TREEDEPTH
 70
  3020
  9
$CMLSTYLE
  2
Standard
  9
$CMLJUST
 70
     0
  9
$CMLSCALE
 40
20.0
  9
$PROXYGRAPHICS
 70
     1
  9
$MEASUREMENT
 70
     1
  9
$CELWEIGHT
370
    -1
  9
$ENDCAPS
280
     0
  9
$JOINSTYLE
280
     0
  9
$LWDISPLAY
290
     1
  9
$INSUNITS
 70
     4
  9
$HYPERLINKBASE
  1

  9
$STYLESHEET
  1

  9
$XEDIT
290
     1
  9
$CEPSNTYPE
380
     0
  9
$PSTYLEMODE
290
     1
  9
$FINGERPRINTGUID
  2
{47c97662-c3aa-4c13-a41d-3c196e3d91dc}
  9
$VERSIONGUID
  2
{FAEB1C32-E019-11D5-929B-00C0DF256EC4}
  9
$EXTNAMES
290
     1
  9
$PSVPSCALE
 40
0.0
  9
$OLESTARTUP
290
     0
  0
ENDSEC
  0
SECTION
  2
CLASSES
  0
CLASS
  1
ACDBDICTIONARYWDFLT
  2
AcDbDictionaryWithDefault
  3
ObjectDBX Classes
 90
        0
280
     0
281
     0
  0
CLASS
  1
VISUALSTYLE
  2
AcDbVisualStyle
  3
ObjectDBX Classes
 90
     4095
280
     0
281
     0
  0
CLASS
  1
MATERIAL
  2
AcDbMaterial
  3
ObjectDBX Classes
 90
     1153
280
     0
281
     0
  0
CLASS
  1
SCALE
  2
AcDbScale
  3
ObjectDBX Classes
 90
     1153
280
     0
281
     0
  0
CLASS
  1
TABLESTYLE
  2
AcDbTableStyle
  3
ObjectDBX Classes
 90
     4095
280
     0
281
     0
  0
CLASS
  1
MLEADERSTYLE
  2
AcDbMLeaderStyle
  3
ACDB_MLEADERSTYLE_CLASS
 90
     4095
280
     0
281
     0
  0
CLASS
  1
SUN
  2
AcDbSun
  3
SCENEOE
 90
     1153
280
     0
281
     0
  0
CLASS
  1
ACDBPLACEHOLDER
  2
AcDbPlaceHolder
  3
ObjectDBX Classes
 90
        0
280
     0
281
     0
  0
CLASS
  1
LAYOUT
  2
AcDbLayout
  3
ObjectDBX Classes
 90
        0
280
     0
281
     0
  0
ENDSEC
  0
SECTION
  2
TABLES
  0
TABLE
  2
VPORT
  5
8
330
0
100
AcDbSymbolTable
 70
     1
  0
VPORT
  5
29
330
8
100
AcDbSymbolTableRecord
100
AcDbViewportTableRecord
  2
*Active
 70
     0
 10
0.0
 20
0.0
 11
1.0
 21
1.0
 12
139.7
 22
107.95
 13
0.0
 23
0.0
 14
10.0
 24
10.0
 15
10.0
 25
10.0
 16
0.0
 26
0.0
 36
1.0
 17
0.0
 27
0.0
 37
0.0
 40
215.9
 41
1.2941176471
 42
50.0
 43
0.0
 44
0.0
 50
0.0
 51
0.0
 71
     0
 72
  2000
 73
     1
 74
     3
 75
     0
 76
     0
 77
     0
 78
     0
281
     0
 65
     1
110
0.0
120
0.0
130
0.0
111
1.0
121
0.0
131
0.0
112
0.0
122
1.0
132
0.0
 79
     0
146
0.0
  0
ENDTAB
  0
TABLE
  2
LTYPE
  5
5
330
0
100
AcDbSymbolTable
 70
     6
  0
LTYPE
  5
14
330
5
100
AcDbSymbolTableRecord
100
AcDbLinetypeTableRecord
  2
ByBlock
 70
     0
  3

 72
    65
 73
     0
 40
0.0
  0
LTYPE
  5
15
330
5
100
AcDbSymbolTableRecord
100
AcDbLinetypeTableRecord
  2
ByLayer
 70
     0
  3

 72
    65
 73
     0
 40
0.0
  0
LTYPE
  5
16
330
5
100
AcDbSymbolTableRecord
100
AcDbLinetypeTableRecord
  2
Continuous
 70
     0
  3
Solid line
 72
    65
 73
     0
 40
0.0
  0
LTYPE
  5
6E
330
5
100
AcDbSymbolTableRecord
100
AcDbLinetypeTableRecord
  2
HIDDEN
 70
     0
  3
Hidden __ __ __ __ __ __ __ __ __ __ __ __ __ __
 72
    65
 73
     2
 40
1.905
 49
1.27
 74
     0
 49
-0.635
 74
     0
  0
LTYPE
  5
6F
330
5
100
AcDbSymbolTableRecord
100
AcDbLinetypeTableRecord
  2
PHANTOM
 70
     0
  3
Phantom ______  __  __  ______  __  __  ______
 72
    65
 73
     6
 40
12.7
 49
6.35
 74
     0
 49
-1.27
 74
     0
 49
1.27
 74
     0
 49
-1.27
 74
     0
 49
1.27
 74
     0
 49
-1.27
 74
     0
  0
LTYPE
  5
70
330
5
100
AcDbSymbolTableRecord
100
AcDbLinetypeTableRecord
  2
CENTER
 70
     0
  3
Center ____ _ ____ _ ____ _ ____ _ ____ _ ____
 72
    65
 73
     4
 40
10.16
 49
6.35
 74
     0
 49
-1.27
 74
     0
 49
1.27
 74
     0
 49
-1.27
 74
     0
  0
LTYPE
  5
71
330
5
100
AcDbSymbolTableRecord
100
AcDbLinetypeTableRecord
  2
CENTERX2
 70
     0
  3
Center (2x) ________  __  ________  __  _____
 72
    65
 73
     4
 40
20.32
 49
12.7
 74
     0
 49
-2.54
 74
     0
 49
2.54
 74
     0
 49
-2.54
 74
     0
  0
LTYPE
  5
72
330
5
100
AcDbSymbolTableRecord
100
AcDbLinetypeTableRecord
  2
DOT2
 70
     0
  3
Dot (.5x) ........................................
 72
    65
 73
     2
 40
0.635
 49
0.0
 74
     0
 49
-0.635
 74
     0
  0
ENDTAB
  0
TABLE
  2
LAYER
  5
2
330
0
100
AcDbSymbolTable
 70
    17
  0
LAYER
  5
10
330
2
100
AcDbSymbolTableRecord
100
AcDbLayerTableRecord
  2
0
 70
     0
 62
     7
  6
Continuous
370
    -3
390
F
  0
LAYER
  5
73
330
2
100
AcDbSymbolTableRecord
100
AcDbLayerTableRecord
  2
FORMAT
 70
     0
 62
     7
  6
Continuous
370
    -3
390
F
  0
LAYER
  5
74
330
2
100
AcDbSymbolTableRecord
100
AcDbLayerTableRecord
  2
YARDIMCI_GEOMETRI
 70
     0
 62
    -6
  6
Continuous
290
     0
370
    -3
390
F
  0
LAYER
  5
75
330
2
100
AcDbSymbolTableRecord
100
AcDbLayerTableRecord
  2
SAYFA_CERCEVESI
 70
     0
 62
     7
  6
Continuous
370
    25
390
F
  0
LAYER
  5
76
330
2
100
AcDbSymbolTableRecord
100
AcDbLayerTableRecord
  2
ANTET
 70
     0
 62
     7
  6
Continuous
370
    -3
390
F
  0
LAYER
  5
77
330
2
100
AcDbSymbolTableRecord
100
AcDbLayerTableRecord
  2
OLCU
 70
     0
 62
   150
  6
Continuous
370
    -3
390
F
  0
LAYER
  5
78
330
2
100
AcDbSymbolTableRecord
100
AcDbLayerTableRecord
  2
METIN
 70
     0
 62
    96
  6
Continuous
370
    -3
390
F
  0
LAYER
  5
79
330
2
100
AcDbSymbolTableRecord
100
AcDbLayerTableRecord
  2
BALON
 70
     0
 62
     5
  6
Continuous
370
    -3
390
F
  0
LAYER
  5
7A
330
2
100
AcDbSymbolTableRecord
100
AcDbLayerTableRecord
  2
VURGU
 70
     0
 62
     7
  6
Continuous
370
    -3
390
F
  0
LAYER
  5
7B
330
2
100
AcDbSymbolTableRecord
100
AcDbLayerTableRecord
  2
SILIK
 70
     0
 62
     7
  6
Continuous
370
    -3
390
F
  0
LAYER
  5
7C
330
2
100
AcDbSymbolTableRecord
100
AcDbLayerTableRecord
  2
MODEL
 70
     0
 62
     7
  6
Continuous
370
    -3
390
F
  0
LAYER
  5
7D
330
2
100
AcDbSymbolTableRecord
100
AcDbLayerTableRecord
  2
DETAYLANDıRMA
 70
     0
 62
   190
  6
Continuous
370
    -3
390
F
  0
LAYER
  5
7E
330
2
100
AcDbSymbolTableRecord
100
AcDbLayerTableRecord
  2
TOLERANS
 70
     0
 62
   230
  6
Continuous
370
    -3
390
F
  0
LAYER
  5
7F
330
2
100
AcDbSymbolTableRecord
100
AcDbLayerTableRecord
  2
MERKEZ_CIZGILERI
 70
     0
 62
    30
  6
Continuous
370
    -3
390
F
  0
LAYER
  5
80
330
2
100
AcDbSymbolTableRecord
100
AcDbLayerTableRecord
  2
KESIT-DETAY_CIZGILERI
 70
     0
 62
     7
  6
Continuous
370
    -3
390
F
  0
LAYER
  5
81
330
2
100
AcDbSymbolTableRecord
100
AcDbLayerTableRecord
  2
\U+041E\U+0421\U+0415\U+0412\U+042B\U+0415
 70
     0
 62
     7
  6
Continuous
370
    -3
390
F
  0
LAYER
  5
82
330
2
100
AcDbSymbolTableRecord
100
AcDbLayerTableRecord
  2
\U+0412\U+041E\U+0414\U+042F\U+041D\U+042B\U+0415_\U+0417\U+041D\U+0410\U+041A\U+0418
 70
     0
 62
    11
  6
Continuous
370
    -3
390
F
  0
ENDTAB
  0
TABLE
  2
STYLE
  5
3
330
0
100
AcDbSymbolTable
 70
     1
  0
STYLE
  5
11
330
3
100
AcDbSymbolTableRecord
100
AcDbTextStyleTableRecord
  2
Standard
 70
     0
 40
0.0
 41
1.0
 50
0.0
 71
     0
 42
3.5
  3
txt
  4

  0
ENDTAB
  0
TABLE
  2
VIEW
  5
6
330
0
100
AcDbSymbolTable
 70
     0
  0
ENDTAB
  0
TABLE
  2
UCS
  5
7
330
0
100
AcDbSymbolTable
 70
     0
  0
ENDTAB
  0
TABLE
  2
APPID
  5
9
330
0
100
AcDbSymbolTable
 70
     1
  0
APPID
  5
12
330
9
100
AcDbSymbolTableRecord
100
AcDbRegAppTableRecord
  2
ACAD
 70
     0
  0
ENDTAB
  0
TABLE
  2
DIMSTYLE
  5
A
330
0
100
AcDbSymbolTable
 70
     1
100
AcDbDimStyleTable
  0
DIMSTYLE
105
27
330
A
100
AcDbSymbolTableRecord
100
AcDbDimStyleTableRecord
  2
ISO-25
 70
     0
 41
2.5
 42
0.625
 43
3.75
 44
1.25
 73
     0
 74
     0
 77
     1
 78
     8
140
2.5
141
2.5
143
0.0393700787
147
0.625
171
     3
172
     1
178
     0
271
     2
272
     2
274
     3
278
    44
283
     0
284
     8
340
11
  0
ENDTAB
  0
TABLE
  2
BLOCK_RECORD
  5
1
330
0
100
AcDbSymbolTable
 70
     5
  0
BLOCK_RECORD
  5
1F
330
1
100
AcDbSymbolTableRecord
100
AcDbBlockTableRecord
  2
*Model_Space
340
22
  0
BLOCK_RECORD
  5
1B
330
1
100
AcDbSymbolTableRecord
100
AcDbBlockTableRecord
  2
*Paper_Space
340
1E
  0
BLOCK_RECORD
  5
23
330
1
100
AcDbSymbolTableRecord
100
AcDbBlockTableRecord
  2
*Paper_Space0
340
26
  0
BLOCK_RECORD
  5
8B
330
1
100
AcDbSymbolTableRecord
100
AcDbBlockTableRecord
  2
SW_CENTERMARKSYMBOL_0
340
0
102
{BLKREFS
331
96
102
}
  0
BLOCK_RECORD
  5
A9
330
1
100
AcDbSymbolTableRecord
100
AcDbBlockTableRecord
  2
SW_CENTERMARKSYMBOL_1
340
0
102
{BLKREFS
331
B4
102
}
  0
BLOCK_RECORD
  5
D9
330
1
100
AcDbSymbolTableRecord
100
AcDbBlockTableRecord
  2
SW_CENTERMARKSYMBOL_2
340
0
102
{BLKREFS
331
E4
102
}
  0
BLOCK_RECORD
  5
E5
330
1
100
AcDbSymbolTableRecord
100
AcDbBlockTableRecord
  2
SW_CENTERMARKSYMBOL_3
340
0
102
{BLKREFS
331
F0
102
}
  0
ENDTAB
  0
ENDSEC
  0
SECTION
  2
BLOCKS
  0
BLOCK
  5
20
330
1F
100
AcDbEntity
  8
0
100
AcDbBlockBegin
  2
*Model_Space
 70
     0
 10
0.0
 20
0.0
 30
0.0
  3
*Model_Space
  1

  0
ENDBLK
  5
21
330
1F
100
AcDbEntity
  8
0
100
AcDbBlockEnd
  0
BLOCK
  5
1C
330
1B
100
AcDbEntity
 67
     1
  8
0
100
AcDbBlockBegin
  2
*Paper_Space
 70
     0
 10
0.0
 20
0.0
 30
0.0
  3
*Paper_Space
  1

  0
ENDBLK
  5
1D
330
1B
100
AcDbEntity
 67
     1
  8
0
100
AcDbBlockEnd
  0
BLOCK
  5
24
330
23
100
AcDbEntity
  8
0
100
AcDbBlockBegin
  2
*Paper_Space0
 70
     0
 10
0.0
 20
0.0
 30
0.0
  3
*Paper_Space0
  1

  0
ENDBLK
  5
25
330
23
100
AcDbEntity
  8
0
100
AcDbBlockEnd
  0
BLOCK
  5
8C
330
8B
100
AcDbEntity
  8
0
100
AcDbBlockBegin
  2
SW_CENTERMARKSYMBOL_0
 70
     0
 10
0.0
 20
0.0
 30
0.0
  3
SW_CENTERMARKSYMBOL_0
  1

  0
LINE
  5
8E
330
8B
100
AcDbEntity
  8
FORMAT
 62
     0
100
AcDbLine
 10
0.0
 20
0.0
 30
0.0
 11
0.0
 21
2.5
 31
0.0
  0
LINE
  5
8F
330
8B
100
AcDbEntity
  8
FORMAT
 62
     0
100
AcDbLine
 10
0.0
 20
0.0
 30
0.0
 11
-2.5
 21
0.0
 31
0.0
  0
LINE
  5
90
330
8B
100
AcDbEntity
  8
FORMAT
 62
     0
100
AcDbLine
 10
0.0
 20
0.0
 30
0.0
 11
0.0
 21
-2.5
 31
0.0
  0
LINE
  5
91
330
8B
100
AcDbEntity
  8
FORMAT
 62
     0
100
AcDbLine
 10
0.0
 20
0.0
 30
0.0
 11
2.5
 21
0.0
 31
0.0
  0
LINE
  5
92
330
8B
100
AcDbEntity
  8
FORMAT
 62
     0
100
AcDbLine
 10
0.0
 20
5.0
 30
0.0
 11
0.0
 21
81.5
 31
0.0
  0
LINE
  5
93
330
8B
100
AcDbEntity
  8
FORMAT
 62
     0
100
AcDbLine
 10
-5.0
 20
0.0
 30
0.0
 11
-81.5
 21
0.0
 31
0.0
  0
LINE
  5
94
330
8B
100
AcDbEntity
  8
FORMAT
 62
     0
100
AcDbLine
 10
0.0
 20
-5.0
 30
0.0
 11
0.0
 21
-81.5
 31
0.0
  0
LINE
  5
95
330
8B
100
AcDbEntity
  8
FORMAT
 62
     0
100
AcDbLine
 10
5.0
 20
0.0
 30
0.0
 11
81.5
 21
0.0
 31
0.0
  0
ENDBLK
  5
8D
330
8B
100
AcDbEntity
  8
0
100
AcDbBlockEnd
  0
BLOCK
  5
AA
330
A9
100
AcDbEntity
  8
0
100
AcDbBlockBegin
  2
SW_CENTERMARKSYMBOL_1
 70
     0
 10
0.0
 20
0.0
 30
0.0
  3
SW_CENTERMARKSYMBOL_1
  1

  0
LINE
  5
AC
330
A9
100
AcDbEntity
  8
FORMAT
 62
     0
100
AcDbLine
 10
0.0
 20
0.0
 30
0.0
 11
0.0
 21
2.5
 31
0.0
  0
LINE
  5
AD
330
A9
100
AcDbEntity
  8
FORMAT
 62
     0
100
AcDbLine
 10
0.0
 20
0.0
 30
0.0
 11
-2.5
 21
0.0
 31
0.0
  0
LINE
  5
AE
330
A9
100
AcDbEntity
  8
FORMAT
 62
     0
100
AcDbLine
 10
0.0
 20
0.0
 30
0.0
 11
0.0
 21
-2.5
 31
0.0
  0
LINE
  5
AF
330
A9
100
AcDbEntity
  8
FORMAT
 62
     0
100
AcDbLine
 10
0.0
 20
0.0
 30
0.0
 11
2.5
 21
0.0
 31
0.0
  0
LINE
  5
B0
330
A9
100
AcDbEntity
  8
FORMAT
 62
     0
100
AcDbLine
 10
0.0
 20
5.0
 30
0.0
 11
0.0
 21
47.5
 31
0.0
  0
LINE
  5
B1
330
A9
100
AcDbEntity
  8
FORMAT
 62
     0
100
AcDbLine
 10
-5.0
 20
0.0
 30
0.0
 11
-47.5
 21
0.0
 31
0.0
  0
LINE
  5
B2
330
A9
100
AcDbEntity
  8
FORMAT
 62
     0
100
AcDbLine
 10
0.0
 20
-5.0
 30
0.0
 11
0.0
 21
-47.5
 31
0.0
  0
LINE
  5
B3
330
A9
100
AcDbEntity
  8
FORMAT
 62
     0
100
AcDbLine
 10
5.0
 20
0.0
 30
0.0
 11
47.5
 21
0.0
 31
0.0
  0
ENDBLK
  5
AB
330
A9
100
AcDbEntity
  8
0
100
AcDbBlockEnd
  0
BLOCK
  5
DA
330
D9
100
AcDbEntity
  8
0
100
AcDbBlockBegin
  2
SW_CENTERMARKSYMBOL_2
 70
     0
 10
0.0
 20
0.0
 30
0.0
  3
SW_CENTERMARKSYMBOL_2
  1

  0
LINE
  5
DC
330
D9
100
AcDbEntity
  8
FORMAT
 62
     0
100
AcDbLine
 10
0.0
 20
0.0
 30
0.0
 11
0.0
 21
2.5
 31
0.0
  0
LINE
  5
DD
330
D9
100
AcDbEntity
  8
FORMAT
 62
     0
100
AcDbLine
 10
0.0
 20
0.0
 30
0.0
 11
-2.5
 21
0.0
 31
0.0
  0
LINE
  5
DE
330
D9
100
AcDbEntity
  8
FORMAT
 62
     0
100
AcDbLine
 10
0.0
 20
0.0
 30
0.0
 11
0.0
 21
-2.5
 31
0.0
  0
LINE
  5
DF
330
D9
100
AcDbEntity
  8
FORMAT
 62
     0
100
AcDbLine
 10
0.0
 20
0.0
 30
0.0
 11
2.5
 21
0.0
 31
0.0
  0
LINE
  5
E0
330
D9
100
AcDbEntity
  8
FORMAT
 62
     0
100
AcDbLine
 10
0.0
 20
5.0
 30
0.0
 11
0.0
 21
9.5
 31
0.0
  0
LINE
  5
E1
330
D9
100
AcDbEntity
  8
FORMAT
 62
     0
100
AcDbLine
 10
-5.0
 20
0.0
 30
0.0
 11
-9.5
 21
0.0
 31
0.0
  0
LINE
  5
E2
330
D9
100
AcDbEntity
  8
FORMAT
 62
     0
100
AcDbLine
 10
0.0
 20
-5.0
 30
0.0
 11
0.0
 21
-9.5
 31
0.0
  0
LINE
  5
E3
330
D9
100
AcDbEntity
  8
FORMAT
 62
     0
100
AcDbLine
 10
5.0
 20
0.0
 30
0.0
 11
9.5
 21
0.0
 31
0.0
  0
ENDBLK
  5
DB
330
D9
100
AcDbEntity
  8
0
100
AcDbBlockEnd
  0
BLOCK
  5
E6
330
E5
100
AcDbEntity
  8
0
100
AcDbBlockBegin
  2
SW_CENTERMARKSYMBOL_3
 70
     0
 10
0.0
 20
0.0
 30
0.0
  3
SW_CENTERMARKSYMBOL_3
  1

  0
LINE
  5
E8
330
E5
100
AcDbEntity
  8
FORMAT
 62
     0
100
AcDbLine
 10
0.0
 20
0.0
 30
0.0
 11
0.0
 21
2.5
 31
0.0
  0
LINE
  5
E9
330
E5
100
AcDbEntity
  8
FORMAT
 62
     0
100
AcDbLine
 10
0.0
 20
0.0
 30
0.0
 11
-2.5
 21
0.0
 31
0.0
  0
LINE
  5
EA
330
E5
100
AcDbEntity
  8
FORMAT
 62
     0
100
AcDbLine
 10
0.0
 20
0.0
 30
0.0
 11
0.0
 21
-2.5
 31
0.0
  0
LINE
  5
EB
330
E5
100
AcDbEntity
  8
FORMAT
 62
     0
100
AcDbLine
 10
0.0
 20
0.0
 30
0.0
 11
2.5
 21
0.0
 31
0.0
  0
LINE
  5
EC
330
E5
100
AcDbEntity
  8
FORMAT
 62
     0
100
AcDbLine
 10
0.0
 20
5.0
 30
0.0
 11
0.0
 21
9.5
 31
0.0
  0
LINE
  5
ED
330
E5
100
AcDbEntity
  8
FORMAT
 62
     0
100
AcDbLine
 10
-5.0
 20
0.0
 30
0.0
 11
-9.5
 21
0.0
 31
0.0
  0
LINE
  5
EE
330
E5
100
AcDbEntity
  8
FORMAT
 62
     0
100
AcDbLine
 10
0.0
 20
-5.0
 30
0.0
 11
0.0
 21
-9.5
 31
0.0
  0
LINE
  5
EF
330
E5
100
AcDbEntity
  8
FORMAT
 62
     0
100
AcDbLine
 10
5.0
 20
0.0
 30
0.0
 11
9.5
 21
0.0
 31
0.0
  0
ENDBLK
  5
E7
330
E5
100
AcDbEntity
  8
0
100
AcDbBlockEnd
  0
ENDSEC
  0
SECTION
  2
ENTITIES
  0
LINE
  5
83
330
1F
100
AcDbEntity
  8
0
  6
Continuous
 62
     7
370
    25
100
AcDbLine
 10
102.204250479
 20
187.4786847441
 30
0.0
 11
102.204250479
 21
210.2816055893
 31
0.0
  0
LINE
  5
84
330
1F
100
AcDbEntity
  8
0
  6
Continuous
 62
     7
370
    25
100
AcDbLine
 10
88.204250479
 20
210.2816055893
 30
0.0
 11
88.204250479
 21
187.4713224195
 31
0.0
  0
LINE
  5
85
330
1F
100
AcDbEntity
  8
0
  6
Continuous
 62
     7
370
    25
100
AcDbLine
 10
160.1416417665
 20
63.7816055893
 30
0.0
 11
267.204250479
 21
63.7816055893
 31
0.0
  0
LINE
  5
86
330
1F
100
AcDbEntity
  8
0
  6
Continuous
 62
     7
370
    25
100
AcDbLine
 10
267.204250479
 20
153.7816055893
 30
0.0
 11
160.1628947324
 21
153.7816055893
 31
0.0
  0
CIRCLE
  5
87
330
1F
100
AcDbEntity
  8
0
  6
Continuous
 62
     7
370
    25
100
AcDbCircle
 10
95.204250479
 20
108.7816055893
 30
0.0
 40
62.5
  0
CIRCLE
  5
88
330
1F
100
AcDbEntity
  8
0
  6
Continuous
 62
     7
370
    25
100
AcDbCircle
 10
95.204250479
 20
108.7816055893
 30
0.0
 40
78.99999999999997
  0
LINE
  5
89
330
1F
100
AcDbEntity
  8
0
  6
Continuous
 62
     7
370
    25
100
AcDbLine
 10
102.204250479
 20
210.2816055893
 30
0.0
 11
88.204250479
 21
210.2816055893
 31
0.0
  0
LINE
  5
8A
330
1F
100
AcDbEntity
  8
0
  6
Continuous
 62
     7
370
    25
100
AcDbLine
 10
267.204250479
 20
153.7816055893
 30
0.0
 11
267.204250479
 21
63.7816055893
 31
0.0
  0
INSERT
  5
96
330
1F
100
AcDbEntity
  8
FORMAT
 62
     7
100
AcDbBlockReference
  2
SW_CENTERMARKSYMBOL_0
 10
95.204250479
 20
108.7816055893
 30
0.0
  0
LINE
  5
97
330
1F
100
AcDbEntity
  8
0
  6
Continuous
 62
     7
370
    25
100
AcDbLine
 10
-331.460890984
 20
187.7816055893
 30
0.0
 11
-332.5476989679
 21
187.7816055893
 31
0.0
  0
LINE
  5
98
330
1F
100
AcDbEntity
  8
0
  6
Continuous
 62
     7
370
    25
100
AcDbLine
 10
-79.460890984
 20
187.7816055893
 30
0.0
 11
-317.5476989679
 21
187.7816055893
 31
0.0
  0
LINE
  5
99
330
1F
100
AcDbEntity
  8
0
  6
Continuous
 62
     7
370
    25
100
AcDbLine
 10
-64.5476989679
 20
187.7816055893
 30
0.0
 11
-65.5476989679
 21
187.7816055893
 31
0.0
  0
LINE
  5
9A
330
1F
100
AcDbEntity
  8
0
  6
Continuous
 62
     7
370
    25
100
AcDbLine
 10
-332.5476989679
 20
29.7816055893
 30
0.0
 11
-64.5476989679
 21
29.7816055893
 31
0.0
  0
LINE
  5
9B
330
1F
100
AcDbEntity
  8
0
  6
Continuous
 62
     7
370
    25
100
AcDbLine
 10
-65.5476989679
 20
187.7816055893
 30
0.0
 11
-65.5476989679
 21
210.2816055893
 31
0.0
  0
LINE
  5
9C
330
1F
100
AcDbEntity
  8
0
  6
Continuous
 62
     7
370
    25
100
AcDbLine
 10
-79.5476989679
 20
210.2816055893
 30
0.0
 11
-79.5476989679
 21
187.7740139705
 31
0.0
  0
LINE
  5
9D
330
1F
100
AcDbEntity
  8
0
  6
Continuous
 62
     7
370
    25
100
AcDbLine
 10
-317.5476989679
 20
187.7816055893
 30
0.0
 11
-317.5476989679
 21
210.2816055893
 31
0.0
  0
LINE
  5
9E
330
1F
100
AcDbEntity
  8
0
  6
Continuous
 62
     7
370
    25
100
AcDbLine
 10
-331.5476989679
 20
210.2816055893
 30
0.0
 11
-331.5476989679
 21
187.7740139705
 31
0.0
  0
CIRCLE
  5
9F
330
1F
100
AcDbEntity
  8
0
  6
Continuous
 62
     7
370
    25
100
AcDbCircle
 10
-198.5476989679
 20
108.7816055893
 30
0.0
 40
36.80000000000001
  0
CIRCLE
  5
A0
330
1F
100
AcDbEntity
  8
0
  6
Continuous
 62
     7
370
    25
100
AcDbCircle
 10
-198.5476989679
 20
108.7816055893
 30
0.0
 40
45.0
  0
LINE
  5
A1
330
1F
100
AcDbEntity
  8
0
  6
Continuous
 62
     7
370
    25
100
AcDbLine
 10
-332.5476989679
 20
108.7816055893
 30
0.0
 11
-332.5476989679
 21
187.7816055893
 31
0.0
  0
LINE
  5
A2
330
1F
100
AcDbEntity
  8
0
  6
Continuous
 62
     7
370
    25
100
AcDbLine
 10
-332.5476989679
 20
29.7816055893
 30
0.0
 11
-332.5476989679
 21
108.7816055893
 31
0.0
  0
LINE
  5
A3
330
1F
100
AcDbEntity
  8
0
  6
Continuous
 62
     7
370
    25
100
AcDbLine
 10
-64.5476989679
 20
108.7816055893
 30
0.0
 11
-64.5476989679
 21
187.7816055893
 31
0.0
  0
LINE
  5
A4
330
1F
100
AcDbEntity
  8
0
  6
Continuous
 62
     7
370
    25
100
AcDbLine
 10
-64.5476989679
 20
29.7816055893
 30
0.0
 11
-64.5476989679
 21
108.7816055893
 31
0.0
  0
SPLINE
  5
A5
330
1F
100
AcDbEntity
  8
0
  6
Continuous
 62
     7
370
    25
100
AcDbSpline
210
0.0
220
0.0
230
1.0
 70
     8
 71
     3
 72
    17
 73
    13
 74
     0
 42
0.00000001
 43
0.00000001
 40
0.0
 40
0.0
 40
0.0
 40
0.0
 40
0.1070846455846277
 40
0.2141591967228406
 40
0.3214960969920784
 40
0.4290084177978434
 40
0.5362341824212892
 40
0.6431584138167081
 40
0.7502366264344968
 40
0.857683482391039
 40
0.9651397471044036
 40
1.0
 40
1.0
 40
1.0
 40
1.0
 10
-317.5476989679134
 20
187.7816055893161
 30
0.0
 10
-317.6247841793
 20
187.7745820493046
 30
0.0
 10
-317.7789473355549
 20
187.760535631363
 30
0.0
 10
-318.9803218799474
 20
187.6628046007528
 30
0.0
 10
-320.7520446179401
 20
187.5537738422111
 30
0.0
 10
-322.9687366706421
 20
187.4749773764478
 30
0.0
 10
-325.3587033668061
 20
187.4630671588411
 30
0.0
 10
-327.650356776918
 20
187.5220831284915
 30
0.0
 10
-329.6086398584253
 20
187.627716901774
 30
0.0
 10
-330.9465463615202
 20
187.7283154962638
 30
0.0
 10
-331.5844945074832
 20
187.7848223069741
 30
0.0
 10
-331.4852104818622
 20
187.776119411398
 30
0.0
 10
-331.4608909840289
 20
187.7739876480173
 30
0.0
  0
SPLINE
  5
A6
330
1F
100
AcDbEntity
  8
0
  6
Continuous
 62
     7
370
    25
100
AcDbSpline
210
0.0
220
0.0
230
1.0
 70
     8
 71
     3
 72
    17
 73
    13
 74
     0
 42
0.00000001
 43
0.00000001
 40
0.0
 40
0.0
 40
0.0
 40
0.0
 40
0.1070846455846278
 40
0.2141591967228414
 40
0.3214960969920779
 40
0.4290084177978433
 40
0.5362341824212884
 40
0.6431584138167086
 40
0.750236626434495
 40
0.8576834823910398
 40
0.9651397471044034
 40
1.0
 40
1.0
 40
1.0
 40
1.0
 10
-65.5476989679134
 20
187.7816055893161
 30
0.0
 10
-65.62478417929995
 20
187.7745820493046
 30
0.0
 10
-65.77894733555486
 20
187.760535631363
 30
0.0
 10
-66.98032187994745
 20
187.6628046007528
 30
0.0
 10
-68.7520446179401
 20
187.5537738422111
 30
0.0
 10
-70.96873667064202
 20
187.4749773764478
 30
0.0
 10
-73.35870336680614
 20
187.4630671588411
 30
0.0
 10
-75.650356776918
 20
187.5220831284915
 30
0.0
 10
-77.60863985842536
 20
187.6277169017741
 30
0.0
 10
-78.94654636152013
 20
187.7283154962638
 30
0.0
 10
-79.58449450748319
 20
187.7848223069742
 30
0.0
 10
-79.48521048186221
 20
187.776119411398
 30
0.0
 10
-79.46089098402885
 20
187.7739876480173
 30
0.0
  0
LINE
  5
A7
330
1F
100
AcDbEntity
  8
0
  6
Continuous
 62
     7
370
    25
100
AcDbLine
 10
-65.5476989679
 20
210.2816055893
 30
0.0
 11
-79.5476989679
 21
210.2816055893
 31
0.0
  0
LINE
  5
A8
330
1F
100
AcDbEntity
  8
0
  6
Continuous
 62
     7
370
    25
100
AcDbLine
 10
-317.5476989679
 20
210.2816055893
 30
0.0
 11
-331.5476989679
 21
210.2816055893
 31
0.0
  0
INSERT
  5
B4
330
1F
100
AcDbEntity
  8
FORMAT
 62
     7
100
AcDbBlockReference
  2
SW_CENTERMARKSYMBOL_1
 10
-198.5476989679
 20
108.7816055893
 30
0.0
  0
LINE
  5
B5
330
1F
100
AcDbEntity
  8
0
  6
Continuous
 62
     7
370
    25
100
AcDbLine
 10
174.204250479
 20
451.4337023345
 30
0.0
 11
174.204250479
 21
540.4337023345
 31
0.0
  0
LINE
  5
B6
330
1F
100
AcDbEntity
  8
0
  6
Continuous
 62
     7
370
    25
100
AcDbLine
 10
174.204250479
 20
272.4337023345
 30
0.0
 11
174.204250479
 21
361.4360046706
 31
0.0
  0
LINE
  5
B7
330
1F
100
AcDbEntity
  8
0
  6
Continuous
 62
     7
370
    25
100
AcDbLine
 10
16.204250479
 20
540.4337023345
 30
0.0
 11
16.204250479
 21
272.4337023345
 31
0.0
  0
LINE
  5
B8
330
1F
100
AcDbEntity
  8
0
  6
Continuous
 62
     7
370
    25
100
AcDbLine
 10
174.2029406002
 20
361.4337023345
 30
0.0
 11
267.204250479
 21
361.4337023345
 31
0.0
  0
LINE
  5
B9
330
1F
100
AcDbEntity
  8
0
  6
Continuous
 62
     7
370
    25
100
AcDbLine
 10
267.204250479
 20
451.4337023345
 30
0.0
 11
174.204250479
 21
451.4337023345
 31
0.0
  0
SPLINE
  5
BA
330
1F
100
AcDbEntity
  8
0
  6
Continuous
 62
     7
370
    25
100
AcDbSpline
210
0.0
220
0.0
230
1.0
 70
     8
 71
     3
 72
    43
 73
    39
 74
     0
 42
0.00000001
 43
0.00000001
 40
0.0
 40
0.0
 40
0.0
 40
0.0
 40
0.0237356318629262
 40
0.0474717697441453
 40
0.0719556329411513
 40
0.0964409689912423
 40
0.120158569623709
 40
0.1438777411816957
 40
0.168198657394636
 40
0.1925210654338009
 40
0.2179780734663554
 40
0.2434361023315225
 40
0.2694968152819541
 40
0.2955574162093683
 40
0.3236382871522405
 40
0.3517168649845419
 40
0.3807203135405017
 40
0.4097187368107584
 40
0.453521663417744
 40
0.476062589689415
 40
0.4986026294417923
 40
0.5424274508924528
 40
0.5650050307495754
 40
0.5875845050374378
 40
0.6314516076506379
 40
0.6762752909775225
 40
0.7017165821707652
 40
0.7271587178409915
 40
0.7531961029334525
 40
0.7792330203265835
 40
0.8074092895592222
 40
0.8355833738735181
 40
0.8646996520567228
 40
0.8938124312382876
 40
0.9199610784781285
 40
0.946107687849493
 40
0.9732387540846607
 40
1.0
 40
1.0
 40
1.0
 40
1.0
 10
174.2042504790252
 20
451.4337023344835
 30
0.0
 10
174.1896993998014
 20
451.4082534836073
 30
0.0
 10
174.1605969311404
 20
451.3573552393127
 30
0.0
 10
173.927641812762
 20
450.9469052743768
 30
0.0
 10
173.5542987022918
 20
450.2845311541179
 30
0.0
 10
173.0390338066263
 20
449.358029238508
 30
0.0
 10
172.4045831419384
 20
448.1982565915372
 30
0.0
 10
171.6640260330464
 20
446.8147391171572
 30
0.0
 10
170.8217833897205
 20
445.1991579976167
 30
0.0
 10
169.8796629306888
 20
443.3308754158053
 30
0.0
 10
168.8587814340769
 20
441.2230746589386
 30
0.0
 10
167.7704654155608
 20
438.8601887712334
 30
0.0
 10
166.6517576176722
 20
436.2791652822037
 30
0.0
 10
165.4995591260789
 20
433.4147097744086
 30
0.0
 10
164.3520537151088
 20
430.2795119327064
 30
0.0
 10
163.2358738786377
 20
426.8337378517156
 30
0.0
 10
162.2217404922501
 20
423.1605280236238
 30
0.0
 10
161.207316380296
 20
418.6169208332877
 30
0.0
 10
160.5331918663106
 20
414.1546183124743
 30
0.0
 10
160.2012214435173
 20
409.9028524758187
 30
0.0
 10
160.078103087866
 20
405.6153950434432
 30
0.0
 10
160.277159372911
 20
401.3146103951075
 30
0.0
 10
160.776277452053
 20
397.1112829955323
 30
0.0
 10
161.4586223042606
 20
392.9932906579637
 30
0.0
 10
162.6129728451247
 20
388.0491754366027
 30
0.0
 10
164.0803868513309
 20
383.3467300585658
 30
0.0
 10
165.4117266971981
 20
379.6871609350853
 30
0.0
 10
166.5146985329021
 20
376.9180459184373
 30
0.0
 10
167.6331202428066
 20
374.3143303589883
 30
0.0
 10
168.7723121287344
 20
371.8249286817287
 30
0.0
 10
169.8936727432638
 20
369.5040632978902
 30
0.0
 10
170.9758725543812
 20
367.3656821004309
 30
0.0
 10
171.9546203473857
 20
365.5026668374467
 30
0.0
 10
172.7693877058178
 20
363.9986585972104
 30
0.0
 10
173.4005856412637
 20
362.8573732402639
 30
0.0
 10
173.8551696481981
 20
362.0484292066621
 30
0.0
 10
174.1486156393979
 20
361.530893683064
 30
0.0
 10
174.1849142398314
 20
361.4674893100384
 30
0.0
 10
174.2029389957534
 20
361.4360046705614
 30
0.0
  0
LINE
  5
BB
330
1F
100
AcDbEntity
  8
0
  6
Continuous
 62
     7
370
    25
100
AcDbLine
 10
16.204250479
 20
540.4337023345
 30
0.0
 11
174.204250479
 21
540.4337023345
 31
0.0
  0
LINE
  5
BC
330
1F
100
AcDbEntity
  8
0
  6
Continuous
 62
     7
370
    25
100
AcDbLine
 10
16.204250479
 20
272.4337023345
 30
0.0
 11
174.204250479
 21
272.4337023345
 31
0.0
  0
LINE
  5
BD
330
1F
100
AcDbEntity
  8
0
  6
Continuous
 62
     7
370
    25
100
AcDbLine
 10
267.204250479
 20
451.4337023345
 30
0.0
 11
267.204250479
 21
361.4337023345
 31
0.0
  0
LINE
  5
BE
330
1F
100
AcDbEntity
  8
0
  6
Continuous
 62
     7
370
    25
100
AcDbLine
 10
366.8834642734
 20
29.7816055893
 30
0.0
 11
634.8834642734
 21
29.7816055893
 31
0.0
  0
LINE
  5
BF
330
1F
100
AcDbEntity
  8
0
  6
Continuous
 62
     7
370
    25
100
AcDbLine
 10
367.8834642734
 20
187.7816055893
 30
0.0
 11
366.8834642734
 21
187.7816055893
 31
0.0
  0
LINE
  5
C0
330
1F
100
AcDbEntity
  8
0
  6
Continuous
 62
     7
370
    25
100
AcDbLine
 10
619.8834642734
 20
187.7816055893
 30
0.0
 11
381.7966562895
 21
187.7816055893
 31
0.0
  0
LINE
  5
C1
330
1F
100
AcDbEntity
  8
0
  6
Continuous
 62
     7
370
    25
100
AcDbLine
 10
634.8834642734
 20
187.7816055893
 30
0.0
 11
633.7966562895
 21
187.7816055893
 31
0.0
  0
LINE
  5
C2
330
1F
100
AcDbEntity
  8
0
  6
Continuous
 62
     7
370
    25
100
AcDbLine
 10
381.8834642734
 20
187.7740139705
 30
0.0
 11
381.8834642734
 21
210.2816055893
 31
0.0
  0
LINE
  5
C3
330
1F
100
AcDbEntity
  8
0
  6
Continuous
 62
     7
370
    25
100
AcDbLine
 10
367.8834642734
 20
210.2816055893
 30
0.0
 11
367.8834642734
 21
187.7816055893
 31
0.0
  0
LINE
  5
C4
330
1F
100
AcDbEntity
  8
0
  6
Continuous
 62
     7
370
    25
100
AcDbLine
 10
633.8834642734
 20
187.7740139705
 30
0.0
 11
633.8834642734
 21
210.2816055893
 31
0.0
  0
LINE
  5
C5
330
1F
100
AcDbEntity
  8
0
  6
Continuous
 62
     7
370
    25
100
AcDbLine
 10
619.8834642734
 20
210.2816055893
 30
0.0
 11
619.8834642734
 21
187.7816055893
 31
0.0
  0
LINE
  5
C6
330
1F
100
AcDbEntity
  8
0
  6
Continuous
 62
     7
370
    25
100
AcDbLine
 10
634.8834642734
 20
187.7816055893
 30
0.0
 11
634.8834642734
 21
29.7816055893
 31
0.0
  0
LINE
  5
C7
330
1F
100
AcDbEntity
  8
0
  6
Continuous
 62
     7
370
    25
100
AcDbLine
 10
366.8834642734
 20
187.7816055893
 30
0.0
 11
366.8834642734
 21
29.7816055893
 31
0.0
  0
ARC
  5
C8
330
1F
100
AcDbEntity
  8
0
  6
Continuous
 62
     7
370
    25
100
AcDbCircle
 10
626.8832256375
 20
266.6137790277
 30
0.0
 40
79.14232892814393
100
AcDbArc
 50
264.9258314719
 51
275.0114257957
  0
ARC
  5
C9
330
1F
100
AcDbEntity
  8
0
  6
Continuous
 62
     7
370
    25
100
AcDbCircle
 10
374.8832256375
 20
266.6137790277
 30
0.0
 40
79.14232892815292
100
AcDbArc
 50
264.9258314719
 51
275.0114257957
  0
LINE
  5
CA
330
1F
100
AcDbEntity
  8
0
  6
Continuous
 62
     7
370
    25
100
AcDbLine
 10
381.8834642734
 20
210.2816055893
 30
0.0
 11
367.8834642734
 21
210.2816055893
 31
0.0
  0
LINE
  5
CB
330
1F
100
AcDbEntity
  8
0
  6
Continuous
 62
     7
370
    25
100
AcDbLine
 10
633.8834642734
 20
210.2816055893
 30
0.0
 11
619.8834642734
 21
210.2816055893
 31
0.0
  0
LINE
  5
CC
330
1F
100
AcDbEntity
  8
0
  6
Continuous
 62
     7
370
    25
100
AcDbLine
 10
16.204250479
 20
-22.9859876926
 30
0.0
 11
16.204250479
 21
-290.9859876926
 31
0.0
  0
LINE
  5
CD
330
1F
100
AcDbEntity
  8
0
  6
Continuous
 62
     7
370
    25
100
AcDbLine
 10
174.204250479
 20
-111.9882900287
 30
0.0
 11
174.204250479
 21
-22.9859876926
 31
0.0
  0
LINE
  5
CE
330
1F
100
AcDbEntity
  8
0
  6
Continuous
 62
     7
370
    25
100
AcDbLine
 10
174.204250479
 20
-290.9859876926
 30
0.0
 11
174.204250479
 21
-201.9859876926
 31
0.0
  0
LINE
  5
CF
330
1F
100
AcDbEntity
  8
0
  6
Continuous
 62
     7
370
    25
100
AcDbLine
 10
174.204250479
 20
-201.9859876926
 30
0.0
 11
267.204250479
 21
-201.9859876926
 31
0.0
  0
LINE
  5
D0
330
1F
100
AcDbEntity
  8
0
  6
Continuous
 62
     7
370
    25
100
AcDbLine
 10
267.204250479
 20
-111.9859876926
 30
0.0
 11
174.2029406002
 21
-111.9859876926
 31
0.0
  0
CIRCLE
  5
D1
330
1F
100
AcDbEntity
  8
0
  6
Continuous
 62
     7
370
    25
100
AcDbCircle
 10
95.204250479
 20
-30.9859876926
 30
0.0
 40
7.000000000000018
  0
CIRCLE
  5
D2
330
1F
100
AcDbEntity
  8
0
  6
Continuous
 62
     7
370
    25
100
AcDbCircle
 10
95.204250479
 20
-30.9859876926
 30
0.0
 40
5.000000000000004
  0
CIRCLE
  5
D3
330
1F
100
AcDbEntity
  8
0
  6
Continuous
 62
     7
370
    25
100
AcDbCircle
 10
95.204250479
 20
-282.9859876926
 30
0.0
 40
5.0
  0
CIRCLE
  5
D4
330
1F
100
AcDbEntity
  8
0
  6
Continuous
 62
     7
370
    25
100
AcDbCircle
 10
95.204250479
 20
-282.9859876926
 30
0.0
 40
7.0
  0
SPLINE
  5
D5
330
1F
100
AcDbEntity
  8
0
  6
Continuous
 62
     7
370
    25
100
AcDbSpline
210
0.0
220
0.0
230
1.0
 70
     8
 71
     3
 72
    43
 73
    39
 74
     0
 42
0.00000001
 43
0.00000001
 40
0.0
 40
0.0
 40
0.0
 40
0.0
 40
0.0003688741161151
 40
0.0234422755312001
 40
0.046516123645283
 40
0.070275630945658
 40
0.094036425250647
 40
0.1398422871587005
 40
0.1867468267572928
 40
0.2120722139654827
 40
0.2373987072432401
 40
0.2633222217861444
 40
0.289245786089427
 40
0.3172553786751169
 40
0.3452629623436363
 40
0.3741697241162835
 40
0.4030717367021018
 40
0.44715240700532
 40
0.469832812577371
 40
0.4925121012308565
 40
0.5366189748942095
 40
0.5593583401892412
 40
0.582099569576527
 40
0.6257176271008155
 40
0.6702965305322803
 40
0.6954787428804953
 40
0.7206619279117652
 40
0.7464243546623256
 40
0.7721864924022729
 40
0.8003235939358455
 40
0.8284586914810884
 40
0.8575148476329815
 40
0.8865675942315139
 40
0.9097138844962896
 40
0.9328588435933765
 40
0.9566622354790412
 40
0.9804647363163955
 40
0.9999999999999999
 40
0.9999999999999999
 40
0.9999999999999999
 40
0.9999999999999999
 10
174.2029389957534
 20
-111.9882900287104
 30
0.0
 10
174.2033761600804
 20
-111.9875225902803
 30
0.0
 10
174.2311583387614
 20
-111.9387512009537
 30
0.0
 10
174.1418867345721
 20
-112.0951728419813
 30
0.0
 10
173.9436731871088
 20
-112.4445683511114
 30
0.0
 10
173.5822699600119
 20
-113.0853470702871
 30
0.0
 10
172.937611425297
 20
-114.2432711891562
 30
0.0
 10
171.8339969973461
 20
-116.2674051781981
 30
0.0
 10
170.4082879403091
 20
-119.0158004447642
 30
0.0
 10
169.1016551683434
 20
-121.6863944070921
 30
0.0
 10
168.0272651114438
 20
-123.9901561998404
 30
0.0
 10
166.9172934532789
 20
-126.5119772608804
 30
0.0
 10
165.7667596754174
 20
-129.3183874390027
 30
0.0
 10
164.6123913788842
 20
-132.397947469387
 30
0.0
 10
163.4798106906309
 20
-135.7900544637123
 30
0.0
 10
162.43957220518
 20
-139.4107394457995
 30
0.0
 10
161.3781078476437
 20
-143.9146942122441
 30
0.0
 10
160.6460661416097
 20
-148.3616918245669
 30
0.0
 10
160.2548047924057
 20
-152.6244689214083
 30
0.0
 10
160.0722928326457
 20
-156.9323333176841
 30
0.0
 10
160.2152911631564
 20
-161.268516203873
 30
0.0
 10
160.667994295756
 20
-165.5185849861109
 30
0.0
 10
161.3074754571029
 20
-169.6639897855157
 30
0.0
 10
162.4145398764915
 20
-174.6330219074981
 30
0.0
 10
163.8425809196577
 20
-179.3556379513566
 30
0.0
 10
165.1487090290848
 20
-183.0349921869381
 30
0.0
 10
166.2345378489609
 20
-185.8189372452921
 30
0.0
 10
167.3418056401316
 20
-188.4436735063754
 30
0.0
 10
168.4799940720369
 20
-190.9699986550224
 30
0.0
 10
169.6116252661852
 20
-193.3429374599623
 30
0.0
 10
170.7153459157336
 20
-195.5472870926742
 30
0.0
 10
171.7234107124154
 20
-197.4826482630312
 30
0.0
 10
172.5444985107062
 20
-199.008628916947
 30
0.0
 10
173.1744856393651
 20
-200.1551677970943
 30
0.0
 10
173.6428462128363
 20
-200.9941753614785
 30
0.0
 10
173.9789567938378
 20
-201.5900771993956
 30
0.0
 10
174.1725194623956
 20
-201.930270988716
 30
0.0
 10
174.194391342373
 20
-201.9686759687713
 30
0.0
 10
174.2042504790252
 20
-201.9859876926324
 30
0.0
  0
LINE
  5
D6
330
1F
100
AcDbEntity
  8
0
  6
Continuous
 62
     7
370
    25
100
AcDbLine
 10
174.204250479
 20
-290.9859876926
 30
0.0
 11
16.204250479
 21
-290.9859876926
 31
0.0
  0
LINE
  5
D7
330
1F
100
AcDbEntity
  8
0
  6
Continuous
 62
     7
370
    25
100
AcDbLine
 10
174.204250479
 20
-22.9859876926
 30
0.0
 11
16.204250479
 21
-22.9859876926
 31
0.0
  0
LINE
  5
D8
330
1F
100
AcDbEntity
  8
0
  6
Continuous
 62
     7
370
    25
100
AcDbLine
 10
267.204250479
 20
-111.9859876926
 30
0.0
 11
267.204250479
 21
-201.9859876926
 31
0.0
  0
INSERT
  5
E4
330
1F
100
AcDbEntity
  8
FORMAT
 62
     7
100
AcDbBlockReference
  2
SW_CENTERMARKSYMBOL_2
 10
95.204250479
 20
-282.9859876926
 30
0.0
  0
INSERT
  5
F0
330
1F
100
AcDbEntity
  8
FORMAT
 62
     7
100
AcDbBlockReference
  2
SW_CENTERMARKSYMBOL_3
 10
95.204250479
 20
-30.9859876926
 30
0.0
  0
LINE
  5
F1
330
1F
100
AcDbEntity
  8
0
  6
Continuous
 62
     7
370
    25
100
AcDbLine
 10
590.7724000846
 20
-136.8482773834
 30
0.0
 11
580.5333794386
 21
-130.9374165807
 31
0.0
  0
LINE
  5
F2
330
1F
100
AcDbEntity
  8
0
  6
Continuous
 62
     7
370
    25
100
AcDbLine
 10
490.5260647814
 20
-78.9772998313
 30
0.0
 11
401.2677827266
 21
-27.4495903992
 31
0.0
  0
LINE
  5
F3
330
1F
100
AcDbEntity
  8
0
  6
Continuous
 62
     7
370
    25
100
AcDbLine
 10
322.2742028484
 20
-164.2853106553
 30
0.0
 11
511.7788202064
 21
-273.6839976396
 31
0.0
  0
LINE
  5
F4
330
1F
100
AcDbEntity
  8
0
  6
Continuous
 62
     7
370
    25
100
AcDbLine
 10
530.1478010179
 20
-160.0243918693
 30
0.0
 11
600.6438393149
 21
-119.3278952097
 31
0.0
  0
LINE
  5
F5
330
1F
100
AcDbEntity
  8
0
  6
Continuous
 62
     7
370
    25
100
AcDbLine
 10
555.6474963463
 20
-41.3834975955
 30
0.0
 11
485.1508704327
 21
-82.0803334789
 31
0.0
  0
LINE
  5
F6
330
1F
100
AcDbEntity
  8
0
  6
Continuous
 62
     7
370
    25
100
AcDbLine
 10
374.427847037
 20
-25.7316730786
 30
0.0
 11
374.427847037
 21
-16.2541905681
 31
0.0
  0
LINE
  5
F7
330
1F
100
AcDbEntity
  8
0
  6
Continuous
 62
     7
370
    25
100
AcDbLine
 10
360.427847037
 20
-16.2541905681
 30
0.0
 11
360.427847037
 21
-32.1547571112
 31
0.0
  0
SPLINE
  5
F8
330
1F
100
AcDbEntity
  8
0
  6
Continuous
 62
     7
370
    25
100
AcDbSpline
210
0.0
220
0.0
230
1.0
 70
     8
 71
     3
 72
    30
 73
    26
 74
     0
 42
0.00000001
 43
0.00000001
 40
0.0
 40
0.0
 40
0.0
 40
0.0
 40
0.0427747289961875
 40
0.0857030799169334
 40
0.1284923681215155
 40
0.1711159914488706
 40
0.2138685570597969
 40
0.2565150097640157
 40
0.3022366457711972
 40
0.3480815570224369
 40
0.3938104360126958
 40
0.4444747051380192
 40
0.4953021709284072
 40
0.5459133416001702
 40
0.5853730966187422
 40
0.6249472039216737
 40
0.6643867392280663
 40
0.7038715080615996
 40
0.7434916293573228
 40
0.782995772448955
 40
0.8420802165315522
 40
0.9011976045622804
 40
0.9468870309656657
 40
0.992696562117076
 40
1.0
 40
1.0
 40
1.0
 40
1.0
 10
480.5649320268203
 20
-99.94949108635632
 30
0.0
 10
480.5791885887191
 20
-101.2449877795751
 30
0.0
 10
480.6077529137872
 20
-103.8406338359404
 30
0.0
 10
480.8360029515799
 20
-108.0625363247124
 30
0.0
 10
481.2001078739848
 20
-112.4413141194519
 30
0.0
 10
481.7173429289052
 20
-116.9461970728626
 30
0.0
 10
482.3858923717187
 20
-121.5039363362396
 30
0.0
 10
483.2344143362807
 20
-126.1793479628402
 30
0.0
 10
484.2879975299832
 20
-130.9181353110802
 30
0.0
 10
485.5782771442108
 20
-135.659936920863
 30
0.0
 10
487.1564643075088
 20
-140.4092826418782
 30
0.0
 10
489.0885444202349
 20
-145.0817590371385
 30
0.0
 10
491.4421419820466
 20
-149.5695235321807
 30
0.0
 10
493.9850021537223
 20
-153.333153178724
 30
0.0
 10
496.6525625182589
 20
-156.3787155864781
 30
0.0
 10
499.3382313615714
 20
-158.7933455099476
 30
0.0
 10
502.2555176595802
 20
-160.7993292381459
 30
0.0
 10
505.3881551161627
 20
-162.3399062767241
 30
0.0
 10
508.6737358620622
 20
-163.4228372426776
 30
0.0
 10
512.6199963754967
 20
-164.1504870344403
 30
0.0
 10
517.2050996707032
 20
-164.2133465128171
 30
0.0
 10
521.9116923483798
 20
-163.450010722475
 30
0.0
 10
526.0382445428902
 20
-162.0689652407108
 30
0.0
 10
528.674854756633
 20
-160.9360057913855
 30
0.0
 10
529.9539589306011
 20
-160.1085016879425
 30
0.0
 10
530.129845499366
 20
-159.9947135693861
 30
0.0
  0
SPLINE
  5
F9
330
1F
100
AcDbEntity
  8
0
  6
Continuous
 62
     7
370
    25
100
AcDbSpline
210
0.0
220
0.0
230
1.0
 70
     8
 71
     3
 72
    15
 73
    11
 74
     0
 42
0.00000001
 43
0.00000001
 40
0.0
 40
0.0
 40
0.0
 40
0.0
 40
0.0873019817554221
 40
0.2399186452502087
 40
0.3930362129143454
 40
0.5455328713205442
 40
0.6708199516849301
 40
0.7964766626988341
 40
0.9217131676996007
 40
1.0
 40
1.0
 40
1.0
 40
1.0
 10
485.1797908405607
 20
-82.1294736798461
 30
0.0
 10
484.8977366492076
 20
-82.28903355569777
 30
0.0
 10
484.1226103792658
 20
-82.72752748768977
 30
0.0
 10
483.1294316973085
 20
-84.03239762396511
 30
0.0
 10
482.1707451722734
 20
-86.05150872397721
 30
0.0
 10
481.4889936605347
 20
-88.52278212658157
 30
0.0
 10
481.0205405607074
 20
-91.31698322618017
 30
0.0
 10
480.726716128352
 20
-94.30639038874716
 30
0.0
 10
480.5841937278501
 20
-97.21984494555346
 30
0.0
 10
480.5702829251235
 20
-99.19119570629037
 30
0.0
 10
480.5649320268203
 20
-99.94949108635632
 30
0.0
  0
LWPOLYLINE
  5
FA
330
1F
100
AcDbEntity
  8
0
  6
Continuous
 62
     7
370
    25
100
AcDbPolyline
 90
      106
 70
   128
 43
0.0
 10
417.6324285012
 20
-63.6193301102
 10
417.5324437803
 20
-59.8192800001
 10
417.2328475369
 20
-56.1482729847
 10
416.7347122478
 20
-52.6194503164
 10
416.0398211081
 20
-49.2454442644
 10
415.1506616477
 20
-46.0383328948
 10
414.0704168267
 20
-43.0095968339
 10
412.8029536412
 20
-40.1700781707
 10
411.3528092804
 20
-37.5299416451
 10
409.7251748848
 20
-35.0986382606
 10
407.9258769631
 20
-32.8848714524
 10
405.9613565349
 20
-30.8965659311
 10
403.8386460735
 20
-29.1408393144
 10
401.5653443313
 20
-27.6239766479
 10
399.1495891387
 20
-26.3514079063
 10
396.6000282722
 20
-25.3276885554
 10
393.925788498
 20
-24.5564832448
 10
391.1364429005
 20
-24.0405526893
 10
388.241976613
 20
-23.7817437865
 10
385.2527510735
 20
-23.780983005
 10
382.1794669337
 20
-24.0382730682
 10
379.0331257532
 20
-24.5526929445
 10
375.8249906168
 20
-25.3224011443
 10
372.5665458157
 20
-26.3446423119
 10
369.2694557366
 20
-27.6157570892
 10
365.9455231062
 20
-29.1311952154
 10
362.6066467408
 20
-30.8855318151
 10
359.264778951
 20
-32.8724868187
 10
355.9318827564
 20
-35.084947443
 10
352.6198890602
 20
-37.5149936531
 10
349.3406539403
 20
-40.1539265143
 10
346.1059162074
 20
-42.9922993318
 10
342.927255383
 20
-46.0199514676
 10
339.8160502479
 20
-49.2260447128
 10
336.7834381089
 20
-52.5991020858
 10
333.8402749306
 20
-56.1270489165
 10
330.9970964732
 20
-59.7972560709
 10
328.2640805777
 20
-63.59658516
 10
325.6510107316
 20
-67.5114355717
 10
323.1672410469
 20
-71.5277931575
 10
320.8216627744
 20
-75.6312803997
 10
318.6226724756
 20
-79.8072078789
 10
316.5781419649
 20
-84.0406268587
 10
314.695390131
 20
-88.3163827976
 10
312.9811567369
 20
-92.6191695993
 10
311.4415782931
 20
-96.9335844037
 10
310.0821660909
 20
-101.2441827255
 10
308.9077864732
 20
-105.5355337414
 10
307.9226434143
 20
-109.7922755287
 10
307.1302634705
 20
-113.9991700565
 10
306.5334831565
 20
-118.1411577341
 10
306.1344387909
 20
-122.2034113208
 10
305.934558849
 20
-126.1713890029
 10
305.934558849
 20
-130.0308864503
 10
306.1344387909
 20
-133.7680876637
 10
306.5334831565
 20
-137.3696144327
 10
307.1302634705
 20
-140.8225742262
 10
307.9226434143
 20
-144.1146063442
 10
308.9077864732
 20
-147.2339261664
 10
310.0821660909
 20
-150.1693673371
 10
311.4415782931
 20
-152.910421739
 10
312.9811567369
 20
-155.4472771086
 10
314.695390131
 20
-157.7708521621
 10
316.5781419649
 20
-159.8728291038
 10
318.6226724756
 20
-161.745683402
 10
320.8216627744
 20
-163.3827107242
 10
323.1672410469
 20
-164.7780509374
 10
325.6510107316
 20
-165.926709086
 10
328.2640805777
 20
-166.8245732718
 10
330.9970964732
 20
-167.468429374
 10
333.8402749306
 20
-167.855972555
 10
336.7834381089
 20
-167.9858155107
 10
339.8160502479
 20
-167.857493437
 10
342.927255383
 20
-167.4714656937
 10
346.1059162074
 20
-166.8291141598
 10
349.3406539403
 20
-165.9327382873
 10
352.6198890602
 20
-164.7855468689
 10
355.9318827564
 20
-163.3916465524
 10
359.264778951
 20
-161.756027139
 10
362.6066467408
 20
-159.8845437218
 10
365.9455231062
 20
-157.7838957256
 10
369.2694557366
 20
-155.4616029251
 10
372.5665458157
 20
-152.9259785259
 10
375.8249906168
 20
-150.1860994051
 10
379.0331257532
 20
-147.251773619
 10
382.1794669337
 20
-144.1335052922
 10
385.2527510735
 20
-140.8424570161
 10
388.241976613
 20
-137.3904098895
 10
391.1364429005
 20
-133.7897213449
 10
393.925788498
 20
-130.0532809131
 10
396.6000282722
 20
-126.1944640809
 10
399.1495891387
 20
-122.2270844111
 10
401.5653443313
 20
-118.1653440932
 10
403.8386460735
 20
-114.0237831035
 10
405.9613565349
 20
-109.8172271554
 10
407.9258769631
 20
-105.5607346274
 10
409.7251748848
 20
-101.269542658
 10
411.3528092804
 20
-96.9590126009
 10
412.8029536412
 20
-92.6445750349
 10
414.0704168267
 20
-88.3416745267
 10
415.1506616477
 20
-84.0657143433
 10
416.0398211081
 20
-79.8320013125
 10
416.7347122478
 20
-75.6556910282
 10
417.2328475369
 20
-71.5517335971
 10
417.5324437803
 20
-67.5348201219
 10
417.6324285012
 20
-63.6193301102
  0
LWPOLYLINE
  5
FB
330
1F
100
AcDbEntity
  8
0
  6
Continuous
 62
     7
370
    25
100
AcDbPolyline
 90
       15
 70
   128
 43
0.0
 10
607.1370458592
 20
-173.0180170945
 10
607.0370611383
 20
-169.2179669844
 10
606.7374648949
 20
-165.546959969
 10
606.2393296058
 20
-162.0181373006
 10
605.5444384661
 20
-158.6441312486
 10
604.6552790057
 20
-155.437019879
 10
603.5750341847
 20
-152.4082838181
 10
602.3075709992
 20
-149.5687651549
 10
600.8574266384
 20
-146.9286286293
 10
599.2297922428
 20
-144.4973252449
 10
597.4304943211
 20
-142.2835584367
 10
595.4659738929
 20
-140.2952529154
 10
593.3432634315
 20
-138.5395262987
 10
591.0699616893
 20
-137.0226636322
 10
590.7724000846
 20
-136.8482773834
  0
LWPOLYLINE
  5
FC
330
1F
100
AcDbEntity
  8
0
  6
Continuous
 62
     7
370
    25
100
AcDbPolyline
 90
       41
 70
   128
 43
0.0
 10
511.7788202064
 20
-273.6839976396
 10
512.6718584049
 20
-274.1767379217
 10
515.1556280896
 20
-275.3253960702
 10
517.7686979357
 20
-276.223260256
 10
520.5017138312
 20
-276.8671163583
 10
523.3448922886
 20
-277.2546595393
 10
526.2880554669
 20
-277.3845024949
 10
529.3206676059
 20
-277.2561804213
 10
532.431872741
 20
-276.8701526779
 10
535.6105335654
 20
-276.2278011441
 10
538.8452712983
 20
-275.3314252715
 10
542.1245064182
 20
-274.1842338532
 10
545.4365001144
 20
-272.7903335366
 10
548.769396309
 20
-271.1547141232
 10
552.1112640988
 20
-269.283230706
 10
555.4501404642
 20
-267.1825827098
 10
558.7740730946
 20
-264.8602899094
 10
562.0711631737
 20
-262.3246655101
 10
565.3296079748
 20
-259.5847863894
 10
568.5377431112
 20
-256.6504606032
 10
571.6840842917
 20
-253.5321922765
 10
574.7573684315
 20
-250.2411440004
 10
577.746593971
 20
-246.7890968737
 10
580.6410602585
 20
-243.1884083292
 10
583.430405856
 20
-239.4519678973
 10
586.1046456302
 20
-235.5931510651
 10
588.6542064967
 20
-231.6257713953
 10
591.0699616893
 20
-227.5640310775
 10
593.3432634315
 20
-223.4224700877
 10
595.4659738929
 20
-219.2159141396
 10
597.4304943211
 20
-214.9594216116
 10
599.2297922428
 20
-210.6682296423
 10
600.8574266384
 20
-206.3576995852
 10
602.3075709992
 20
-202.0432620191
 10
603.5750341847
 20
-197.7403615109
 10
604.6552790057
 20
-193.4644013275
 10
605.5444384661
 20
-189.2306882968
 10
606.2393296058
 20
-185.0543780124
 10
606.7374648949
 20
-180.9504205814
 10
607.0370611383
 20
-176.9335071062
 10
607.1370458592
 20
-173.0180170945
  0
LWPOLYLINE
  5
FD
330
1F
100
AcDbEntity
  8
0
  6
Continuous
 62
     7
370
    25
100
AcDbPolyline
 90
       94
 70
   128
 43
0.0
 10
405.9651666116
 20
-70.3546970328
 10
405.8643426723
 20
-66.9676224847
 10
405.5623308906
 20
-63.7124112235
 10
405.0605092772
 20
-60.6039160316
 10
404.3611675289
 20
-57.6563202595
 10
403.4674965817
 20
-54.8830731107
 10
402.3835740513
 20
-52.2968282759
 10
401.1143456275
 20
-49.9093861971
 10
399.6656025084
 20
-47.7316402249
 10
398.0439549767
 20
-45.7735269146
 10
396.2568022381
 20
-44.0439806882
 10
394.3122986607
 20
-42.5508930685
 10
392.2193165682
 20
-41.3010766717
 10
389.987405758
 20
-40.3002341235
 10
387.6267499271
 20
-39.5529320389
 10
385.1481202066
 20
-39.0625801858
 10
382.5628260155
 20
-38.8314159273
 10
379.8826634582
 20
-38.8604940129
 10
377.1198615017
 20
-39.1496817659
 10
374.2870261778
 20
-39.697659689
 10
371.3970830641
 20
-40.5019274846
 10
368.4632183083
 20
-41.5588154632
 10
365.4988184624
 20
-42.8635012873
 10
362.517409403
 20
-44.4100319748
 10
359.5325946158
 20
-46.191351061
 10
356.557993126
 20
-48.1993307952
 10
353.607177358
 20
-50.4248092266
 10
350.6936112074
 20
-52.8576320076
 10
347.8305886082
 20
-55.4866987257
 10
345.0311728759
 20
-58.3000135526
 10
342.3081371024
 20
-61.2847399778
 10
339.6739058754
 20
-64.4272593795
 10
337.1404985878
 20
-67.7132331622
 10
334.719474596
 20
-71.1276681813
 10
332.4218804771
 20
-74.6549851529
 10
330.2581996262
 20
-78.2790897388
 10
328.2383044227
 20
-81.9834459808
 10
326.3714111852
 20
-85.7511517511
 10
324.6660381192
 20
-89.5650158725
 10
323.129966451
 20
-93.4076365577
 10
321.7702049233
 20
-97.2614808099
 10
320.592957816
 20
-101.1089644216
 10
319.6035966377
 20
-104.9325322076
 10
318.8066356165
 20
-108.714738105
 10
318.2057111027
 20
-112.4383247759
 10
317.8035649772
 20
-116.0863023483
 10
317.6020321403
 20
-119.6420259373
 10
317.6020321403
 20
-123.0892715916
 10
317.8035649772
 20
-126.4123103199
 10
318.2057111027
 20
-129.5959798588
 10
318.8066356165
 20
-132.6257538544
 10
319.6035966377
 20
-135.4878081427
 10
320.592957816
 20
-138.1690838266
 10
321.7702049233
 20
-140.6573468601
 10
323.129966451
 20
-142.9412438696
 10
324.6660381192
 20
-145.0103539569
 10
326.3714111852
 20
-146.8552362473
 10
328.2383044227
 20
-148.4674729661
 10
330.2581996262
 20
-149.8397078467
 10
332.4218804771
 20
-150.9656796964
 10
334.719474596
 20
-151.8402509636
 10
337.1404985878
 20
-152.4594311804
 10
339.6739058754
 20
-152.8203951695
 10
342.3081371024
 20
-152.9214959348
 10
345.0311728759
 20
-152.7622721769
 10
347.8305886082
 20
-152.3434503972
 10
350.6936112074
 20
-151.6669415835
 10
353.607177358
 20
-150.7358324902
 10
356.557993126
 20
-149.5543715546
 10
359.5325946158
 20
-148.1279495121
 10
362.517409403
 20
-146.4630747992
 10
365.4988184624
 20
-144.5673438573
 10
368.4632183083
 20
-142.4494064719
 10
371.3970830641
 20
-140.1189263057
 10
374.2870261778
 20
-137.586536805
 10
377.1198615017
 20
-134.8637926823
 10
379.8826634582
 20
-131.9631171945
 10
382.5628260155
 20
-128.8977454587
 10
385.1481202066
 20
-125.6816640629
 10
387.6267499271
 20
-122.3295472489
 10
389.987405758
 20
-118.856689957
 10
392.2193165682
 20
-115.2789380383
 10
394.3122986607
 20
-111.6126159544
 10
396.2568022381
 20
-107.8744522919
 10
398.0439549767
 20
-104.0815034343
 10
399.6656025084
 20
-100.2510757373
 10
401.1143456275
 20
-96.4006465639
 10
402.3835740513
 20
-92.5477845392
 10
403.4674965817
 20
-88.710069389
 10
404.3611675289
 20
-84.9050117274
 10
405.0605092772
 20
-81.1499731597
 10
405.5623308906
 20
-77.4620870655
 10
405.8643426723
 20
-73.8581804234
 10
405.9651666116
 20
-70.3546970328
  0
LWPOLYLINE
  5
FE
330
1F
100
AcDbEntity
  8
0
  6
Continuous
 62
     7
370
    25
100
AcDbPolyline
 90
       80
 70
   128
 43
0.0
 10
609.965472984
 20
-98.7248789186
 10
609.8648854573
 20
-95.7474673026
 10
609.5637588242
 20
-92.6727439552
 10
609.0639969042
 20
-89.5201482674
 10
608.3687593529
 20
-86.3096119643
 10
607.4824416861
 20
-83.06143309
 10
606.4106474894
 20
-79.7961476772
 10
605.1601529908
 20
-76.5343999117
 10
603.7388642191
 20
-73.2968116128
 10
602.1557670196
 20
-70.1038518564
 10
600.4208702425
 20
-66.975707562
 10
598.5451424638
 20
-63.932155865
 10
596.5404426385
 20
-60.9924390791
 10
594.4194451242
 20
-58.1751430405
 10
592.1955595502
 20
-55.4980796017
 10
589.882846037
 20
-52.9781740198
 10
587.4959263043
 20
-50.6313579491
 10
585.0498912269
 20
-48.4724687165
 10
582.5602054263
 20
-46.5151555147
 10
580.0426094977
 20
-44.7717931081
 10
577.513020493
 20
-43.2534035952
 10
574.9874312886
 20
-41.9695867232
 10
572.4818094724
 20
-40.9284591958
 10
570.0119963923
 20
-40.1366033564
 10
567.5936070019
 20
-39.5990255726
 10
565.2419311375
 20
-39.3191245843
 10
562.9718368511
 20
-39.2986700155
 10
560.7976764097
 20
-39.5377911868
 10
558.7331955556
 20
-40.034976297
 10
556.7914466014
 20
-40.7870819818
 10
554.9847059093
 20
-41.7893531868
 10
553.3243962756
 20
-43.035453231
 10
551.8210147124
 20
-44.5175038684
 10
550.484066082
 20
-46.2261350979
 10
549.3220030041
 20
-48.1505444027
 10
548.3421724155
 20
-50.2785650476
 10
547.5507691208
 20
-52.5967430008
 10
546.9527966265
 20
-55.0904219951
 10
546.552035507
 20
-57.7438361887
 10
546.3510195034
 20
-60.5402098431
 10
546.3510195034
 20
-63.4618633834
 10
546.552035507
 20
-66.4903251754
 10
546.9527966265
 20
-69.6064483086
 10
547.5507691208
 20
-72.7905316491
 10
548.3421724155
 20
-76.022444397
 10
549.3220030041
 20
-79.2817533592
 10
550.484066082
 20
-82.5478521352
 10
551.8210147124
 20
-85.8000913968
 10
553.3243962756
 20
-89.0179094403
 10
554.9847059093
 20
-92.180962184
 10
556.7914466014
 20
-95.26925179
 10
558.7331955556
 20
-98.2632530971
 10
560.7976764097
 20
-101.1440370652
 10
562.9718368511
 20
-103.8933904503
 10
565.2419311375
 20
-106.4939309552
 10
567.5936070019
 20
-108.9292171255
 10
570.0119963923
 20
-111.183852298
 10
572.4818094724
 20
-113.2435819431
 10
574.9874312886
 20
-115.095383787
 10
577.513020493
 20
-116.727550142
 10
580.0426094977
 20
-118.129761927
 10
582.5602054263
 20
-119.2931539076
 10
585.0498912269
 20
-120.2103707452
 10
587.4959263043
 20
-120.8756134995
 10
589.882846037
 20
-121.2846762918
 10
592.1955595502
 20
-121.4349728952
 10
594.4194451242
 20
-121.3255530863
 10
596.5404426385
 20
-120.9571086524
 10
598.5451424638
 20
-120.3319690178
 10
600.4208702425
 20
-119.4540865166
 10
602.1557670196
 20
-118.3290114045
 10
603.7388642191
 20
-116.9638567686
 10
605.1601529908
 20
-115.3672535562
 10
606.4106474894
 20
-113.5492960068
 10
607.4824416861
 20
-111.5214778333
 10
608.3687593529
 20
-109.2966195551
 10
609.0639969042
 20
-106.8887874426
 10
609.5637588242
 20
-104.3132045857
 10
609.8648854573
 20
-101.5861546485
 10
609.965472984
 20
-98.7248789186
  0
LWPOLYLINE
  5
FF
330
1F
100
AcDbEntity
  8
0
  6
Continuous
 62
     7
370
    25
100
AcDbPolyline
 90
       73
 70
   128
 43
0.0
 10
604.1671973782
 20
-95.3776056601
 10
604.0681776022
 20
-92.7015258295
 10
603.7718718743
 20
-89.9314867822
 10
603.2805352602
 20
-87.0885701882
 10
602.5979071281
 20
-84.1944123592
 10
601.7291826902
 20
-81.2710395839
 10
600.6809734642
 20
-78.3407004943
 10
599.4612569551
 20
-75.4256967402
 10
598.079315942
 20
-72.5482132604
 10
596.5456678306
 20
-69.7301494416
 10
594.8719846089
 20
-66.9929524511
 10
593.0710040169
 20
-64.3574540106
 10
591.1564326044
 20
-61.8437118548
 10
589.1428414158
 20
-59.4708570792
 10
587.045555096
 20
-57.2569485415
 10
584.8805352602
 20
-55.2188354224
 10
582.6642590166
 20
-53.3720289934
 10
580.4135935657
 20
-51.7305845666
 10
578.1456678306
 20
-50.3069945252
 10
575.8777420954
 20
-49.112093249
 10
573.6270766445
 20
-48.1549746582
 10
571.4108004009
 20
-47.4429230031
 10
569.2457805651
 20
-46.9813574269
 10
567.1484942453
 20
-46.7737907223
 10
565.1349030567
 20
-46.8218025973
 10
563.2203316442
 20
-47.1250276524
 10
561.4193510522
 20
-47.6811581619
 10
559.7456678306
 20
-48.4859616369
 10
558.2120197191
 20
-49.5333130369
 10
556.8300787061
 20
-50.8152413854
 10
555.610362197
 20
-52.3219904335
 10
554.5621529709
 20
-54.0420929114
 10
553.6934285331
 20
-55.9624578003
 10
553.0108004009
 20
-58.0684699641
 10
552.5194637868
 20
-60.3441013785
 10
552.2231580589
 20
-62.7720331143
 10
552.1241382829
 20
-65.3337871451
 10
552.2231580589
 20
-68.0098669758
 10
552.5194637868
 20
-70.779906023
 10
553.0108004009
 20
-73.6228226171
 10
553.6934285331
 20
-76.516980446
 10
554.5621529709
 20
-79.4403532213
 10
555.610362197
 20
-82.3706923109
 10
556.8300787061
 20
-85.285696065
 10
558.2120197191
 20
-88.1631795448
 10
559.7456678306
 20
-90.9812433636
 10
561.4193510522
 20
-93.7184403541
 10
563.2203316442
 20
-96.3539387946
 10
565.1349030567
 20
-98.8676809504
 10
567.1484942453
 20
-101.240535726
 10
569.2457805651
 20
-103.4544442637
 10
571.4108004009
 20
-105.4925573828
 10
573.6270766445
 20
-107.3393638118
 10
575.8777420954
 20
-108.9808082386
 10
578.1456678306
 20
-110.40439828
 10
580.4135935657
 20
-111.5992995562
 10
582.6642590166
 20
-112.5564181471
 10
584.8805352602
 20
-113.2684698021
 10
587.045555096
 20
-113.7300353783
 10
589.1428414158
 20
-113.9376020829
 10
591.1564326044
 20
-113.8895902079
 10
593.0710040169
 20
-113.5863651528
 10
594.8719846089
 20
-113.0302346433
 10
596.5456678306
 20
-112.2254311683
 10
598.079315942
 20
-111.1780797683
 10
599.4612569551
 20
-109.8961514199
 10
600.6809734642
 20
-108.3894023717
 10
601.7291826902
 20
-106.6692998939
 10
602.5979071281
 20
-104.7489350049
 10
603.2805352602
 20
-102.6429228411
 10
603.7718718743
 20
-100.3672914267
 10
604.0681776022
 20
-97.9393596909
 10
604.1671973782
 20
-95.3776056601
  0
LWPOLYLINE
  5
100
330
1F
100
AcDbEntity
  8
0
  6
Continuous
 62
     7
370
    25
100
AcDbPolyline
 90
       18
 70
   128
 43
0.0
 10
374.427847037
 20
-16.2541905681
 10
374.425600564
 20
-16.1518207153
 10
374.2466600729
 20
-15.3407271537
 10
373.788556575
 20
-14.5670308916
 10
373.0700448812
 20
-13.8624071449
 10
372.1205409447
 20
-13.2557032926
 10
370.9789175682
 20
-12.7717578616
 10
369.691912947
 20
-12.4303836348
 10
368.3122172014
 20
-12.2455565131
 10
366.8963152374
 20
-12.2248433407
 10
365.5021742477
 20
-12.3690921171
 10
364.1868705282
 20
-12.6723972806
 10
363.0042527678
 20
-13.1223414822
 10
362.0027374766
 20
-13.7005039533
 10
361.2233268082
 20
-14.3832146545
 10
360.6979299269
 20
-15.1425233294
 10
360.4480566428
 20
-15.9473437917
 10
360.427847037
 20
-16.2541905681
  0
ENDSEC
  0
SECTION
  2
OBJECTS
  0
DICTIONARY
  5
C
330
0
100
AcDbDictionary
281
     1
  3
ACAD_GROUP
350
D
  3
ACAD_LAYOUT
350
1A
  3
ACAD_MLINESTYLE
350
17
  3
ACAD_PLOTSETTINGS
350
19
  3
ACAD_PLOTSTYLENAME
350
E
  3
ACAD_SCALELIST
350
47
  3
DWGPROPS
350
101
  0
DICTIONARY
  5
D
102
{ACAD_REACTORS
330
C
102
}
330
C
100
AcDbDictionary
281
     1
  0
DICTIONARY
  5
1A
102
{ACAD_REACTORS
330
C
102
}
330
C
100
AcDbDictionary
281
     1
  3
Layout1
350
1E
  3
Layout2
350
26
  3
Model
350
22
  0
DICTIONARY
  5
17
102
{ACAD_REACTORS
330
C
102
}
330
C
100
AcDbDictionary
281
     1
  3
Standard
350
18
  0
DICTIONARY
  5
19
102
{ACAD_REACTORS
330
C
102
}
330
C
100
AcDbDictionary
281
     1
  0
ACDBDICTIONARYWDFLT
  5
E
102
{ACAD_REACTORS
330
C
102
}
330
C
100
AcDbDictionary
281
     1
  3
Normal
350
F
100
AcDbDictionaryWithDefault
340
F
  0
DICTIONARY
  5
47
102
{ACAD_REACTORS
330
C
102
}
330
C
100
AcDbDictionary
281
     1
  3
A0
350
48
  3
A1
350
49
  3
A2
350
4A
  3
A3
350
4B
  3
A4
350
4C
  3
A5
350
4D
  3
A6
350
4E
  3
A7
350
4F
  3
A8
350
50
  3
A9
350
51
  3
B0
350
52
  3
B1
350
53
  3
B2
350
54
  3
B3
350
55
  3
B4
350
56
  3
B5
350
57
  3
B6
350
58
  3
B7
350
59
  3
B8
350
5A
  3
B9
350
5B
  3
C0
350
5C
  3
C1
350
5D
  3
C2
350
5E
  3
C3
350
5F
  3
C4
350
60
  3
C5
350
61
  3
C6
350
62
  3
C7
350
63
  3
C8
350
64
  3
C9
350
65
  3
D0
350
66
  3
D1
350
67
  3
D2
350
68
  0
XRECORD
  5
101
102
{ACAD_REACTORS
330
C
102
}
330
C
100
AcDbXrecord
280
     1
  1
DWGPROPS COOKIE
  2

  3

  4

  6

  7

  8
b.kav
  9

300
=
301
=
302
=
303
=
304
=
305
=
306
=
307
=
308
=
309
=
 40
0.0
 41
2459741.481144063
 42
2459741.481144236
  1

 90
        0
  0
LAYOUT
  5
1E
102
{ACAD_REACTORS
330
1A
102
}
330
1A
100
AcDbPlotSettings
  1

  2
none_device
  4

  6

 40
0.0
 41
0.0
 42
0.0
 43
0.0
 44
0.0
 45
0.0
 46
0.0
 47
0.0
 48
0.0
 49
0.0
140
0.0
141
0.0
142
1.0
143
1.0
 70
   688
 72
     1
 73
     0
 74
     5
  7

 75
    16
147
1.0
148
0.0
149
0.0
100
AcDbLayout
  1
Layout1
 70
     1
 71
     1
 10
0.0
 20
0.0
 11
420.0
 21
297.0
 12
0.0
 22
0.0
 32
0.0
 14
1.0000000000E+20
 24
1.0000000000E+20
 34
1.0000000000E+20
 15
-1.0000000000E+20
 25
-1.0000000000E+20
 35
-1.0000000000E+20
146
0.0
 13
0.0
 23
0.0
 33
0.0
 16
1.0
 26
0.0
 36
0.0
 17
0.0
 27
1.0
 37
0.0
 76
     0
330
1B
  0
LAYOUT
  5
26
102
{ACAD_REACTORS
330
1A
102
}
330
1A
100
AcDbPlotSettings
  1

  2
none_device
  4

  6

 40
0.0
 41
0.0
 42
0.0
 43
0.0
 44
0.0
 45
0.0
 46
0.0
 47
0.0
 48
0.0
 49
0.0
140
0.0
141
0.0
142
1.0
143
1.0
 70
   688
 72
     1
 73
     0
 74
     5
  7

 75
    16
147
1.0
148
0.0
149
0.0
100
AcDbLayout
  1
Layout2
 70
     1
 71
     2
 10
0.0
 20
0.0
 11
0.0
 21
0.0
 12
0.0
 22
0.0
 32
0.0
 14
0.0
 24
0.0
 34
0.0
 15
0.0
 25
0.0
 35
0.0
146
0.0
 13
0.0
 23
0.0
 33
0.0
 16
1.0
 26
0.0
 36
0.0
 17
0.0
 27
1.0
 37
0.0
 76
     0
330
23
  0
LAYOUT
  5
22
102
{ACAD_REACTORS
330
1A
102
}
330
1A
100
AcDbPlotSettings
  1

  2
none_device
  4
Letter_(8.50_x_11.00_Inches)
  6

 40
6.35
 41
6.35
 42
6.35000508
 43
6.35000508
 44
215.9
 45
279.4
 46
0.0
 47
0.0
 48
0.0
 49
0.0
140
0.0
141
0.0
142
1.0
143
1.0
 70
  1712
 72
     1
 73
     0
 74
     0
  7

 75
     0
147
1.0
148
0.0
149
0.0
100
AcDbLayout
  1
Model
 70
     1
 71
     0
 10
0.0
 20
0.0
 11
279.4
 21
215.9
 12
0.0
 22
0.0
 32
0.0
 14
0.0
 24
0.0
 34
0.0
 15
279.4
 25
215.9
 35
0.0
146
0.0
 13
0.0
 23
0.0
 33
0.0
 16
1.0
 26
0.0
 36
0.0
 17
0.0
 27
1.0
 37
0.0
 76
     0
330
1F
331
29
  0
MLINESTYLE
  5
18
102
{ACAD_REACTORS
330
17
102
}
330
17
100
AcDbMlineStyle
  2
Standard
 70
     0
  3

 62
   256
 51
90.0
 52
90.0
 71
     2
 49
0.5
 62
   256
  6
BYLAYER
 49
-0.5
 62
   256
  6
BYLAYER
  0
ACDBPLACEHOLDER
  5
F
102
{ACAD_REACTORS
330
E
102
}
330
E
  0
SCALE
  5
48
102
{ACAD_REACTORS
330
47
102
}
330
47
100
AcDbScale
 70
     0
300
1:1
140
1.0
141
1.0
290
     1
  0
SCALE
  5
49
102
{ACAD_REACTORS
330
47
102
}
330
47
100
AcDbScale
 70
     0
300
1:2
140
1.0
141
2.0
290
     0
  0
SCALE
  5
4A
102
{ACAD_REACTORS
330
47
102
}
330
47
100
AcDbScale
 70
     0
300
1:4
140
1.0
141
4.0
290
     0
  0
SCALE
  5
4B
102
{ACAD_REACTORS
330
47
102
}
330
47
100
AcDbScale
 70
     0
300
1:5
140
1.0
141
5.0
290
     0
  0
SCALE
  5
4C
102
{ACAD_REACTORS
330
47
102
}
330
47
100
AcDbScale
 70
     0
300
1:8
140
1.0
141
8.0
290
     0
  0
SCALE
  5
4D
102
{ACAD_REACTORS
330
47
102
}
330
47
100
AcDbScale
 70
     0
300
1:10
140
1.0
141
10.0
290
     0
  0
SCALE
  5
4E
102
{ACAD_REACTORS
330
47
102
}
330
47
100
AcDbScale
 70
     0
300
1:16
140
1.0
141
16.0
290
     0
  0
SCALE
  5
4F
102
{ACAD_REACTORS
330
47
102
}
330
47
100
AcDbScale
 70
     0
300
1:20
140
1.0
141
20.0
290
     0
  0
SCALE
  5
50
102
{ACAD_REACTORS
330
47
102
}
330
47
100
AcDbScale
 70
     0
300
1:30
140
1.0
141
30.0
290
     0
  0
SCALE
  5
51
102
{ACAD_REACTORS
330
47
102
}
330
47
100
AcDbScale
 70
     0
300
1:40
140
1.0
141
40.0
290
     0
  0
SCALE
  5
52
102
{ACAD_REACTORS
330
47
102
}
330
47
100
AcDbScale
 70
     0
300
1:50
140
1.0
141
50.0
290
     0
  0
SCALE
  5
53
102
{ACAD_REACTORS
330
47
102
}
330
47
100
AcDbScale
 70
     0
300
1:100
140
1.0
141
100.0
290
     0
  0
SCALE
  5
54
102
{ACAD_REACTORS
330
47
102
}
330
47
100
AcDbScale
 70
     0
300
2:1
140
2.0
141
1.0
290
     0
  0
SCALE
  5
55
102
{ACAD_REACTORS
330
47
102
}
330
47
100
AcDbScale
 70
     0
300
4:1
140
4.0
141
1.0
290
     0
  0
SCALE
  5
56
102
{ACAD_REACTORS
330
47
102
}
330
47
100
AcDbScale
 70
     0
300
8:1
140
8.0
141
1.0
290
     0
  0
SCALE
  5
57
102
{ACAD_REACTORS
330
47
102
}
330
47
100
AcDbScale
 70
     0
300
10:1
140
10.0
141
1.0
290
     0
  0
SCALE
  5
58
102
{ACAD_REACTORS
330
47
102
}
330
47
100
AcDbScale
 70
     0
300
100:1
140
100.0
141
1.0
290
     0
  0
SCALE
  5
59
102
{ACAD_REACTORS
330
47
102
}
330
47
100
AcDbScale
 70
     0
300
1/128" = 1'-0"
140
0.0078125
141
12.0
290
     0
  0
SCALE
  5
5A
102
{ACAD_REACTORS
330
47
102
}
330
47
100
AcDbScale
 70
     0
300
1/64" = 1'-0"
140
0.015625
141
12.0
290
     0
  0
SCALE
  5
5B
102
{ACAD_REACTORS
330
47
102
}
330
47
100
AcDbScale
 70
     0
300
1/32" = 1'-0"
140
0.03125
141
12.0
290
     0
  0
SCALE
  5
5C
102
{ACAD_REACTORS
330
47
102
}
330
47
100
AcDbScale
 70
     0
300
1/16" = 1'-0"
140
0.0625
141
12.0
290
     0
  0
SCALE
  5
5D
102
{ACAD_REACTORS
330
47
102
}
330
47
100
AcDbScale
 70
     0
300
3/32" = 1'-0"
140
0.09375
141
12.0
290
     0
  0
SCALE
  5
5E
102
{ACAD_REACTORS
330
47
102
}
330
47
100
AcDbScale
 70
     0
300
1/8" = 1'-0"
140
0.125
141
12.0
290
     0
  0
SCALE
  5
5F
102
{ACAD_REACTORS
330
47
102
}
330
47
100
AcDbScale
 70
     0
300
3/16" = 1'-0"
140
0.1875
141
12.0
290
     0
  0
SCALE
  5
60
102
{ACAD_REACTORS
330
47
102
}
330
47
100
AcDbScale
 70
     0
300
1/4" = 1'-0"
140
0.25
141
12.0
290
     0
  0
SCALE
  5
61
102
{ACAD_REACTORS
330
47
102
}
330
47
100
AcDbScale
 70
     0
300
3/8" = 1'-0"
140
0.375
141
12.0
290
     0
  0
SCALE
  5
62
102
{ACAD_REACTORS
330
47
102
}
330
47
100
AcDbScale
 70
     0
300
1/2" = 1'-0"
140
0.5
141
12.0
290
     0
  0
SCALE
  5
63
102
{ACAD_REACTORS
330
47
102
}
330
47
100
AcDbScale
 70
     0
300
3/4" = 1'-0"
140
0.75
141
12.0
290
     0
  0
SCALE
  5
64
102
{ACAD_REACTORS
330
47
102
}
330
47
100
AcDbScale
 70
     0
300
1" = 1'-0"
140
1.0
141
12.0
290
     0
  0
SCALE
  5
65
102
{ACAD_REACTORS
330
47
102
}
330
47
100
AcDbScale
 70
     0
300
1-1/2" = 1'-0"
140
1.5
141
12.0
290
     0
  0
SCALE
  5
66
102
{ACAD_REACTORS
330
47
102
}
330
47
100
AcDbScale
 70
     0
300
3" = 1'-0"
140
3.0
141
12.0
290
     0
  0
SCALE
  5
67
102
{ACAD_REACTORS
330
47
102
}
330
47
100
AcDbScale
 70
     0
300
6" = 1'-0"
140
6.0
141
12.0
290
     0
  0
SCALE
  5
68
102
{ACAD_REACTORS
330
47
102
}
330
47
100
AcDbScale
 70
     0
300
1'-0" = 1'-0"
140
12.0
141
12.0
290
     0
  0
ENDSEC
  0
EOF
